  0
SECTION
  2
HEADER
  9
$ACADVER
  1
AC1015
  9
$ACADMAINTVER
 70
     6
  9
$DWGCODEPAGE
  3
ANSI_1252
  9
$INSBASE
 10
0.0
 20
0.0
 30
0.0
  9
$EXTMIN
 10
0.0
 20
0.0
 30
0.0
  9
$EXTMAX
 10
70.0
 20
42.0
 30
0.0
  9
$LIMMIN
 10
0.0
 20
0.0
  9
$LIMMAX
 10
70.0
 20
42.0
  9
$ORTHOMODE
 70
     0
  9
$REGENMODE
 70
     1
  9
$FILLMODE
 70
     1
  9
$QTEXTMODE
 70
     0
  9
$MIRRTEXT
 70
     1
  9
$LTSCALE
 40
1.0
  9
$ATTMODE
 70
     1
  9
$TEXTSIZE
 40
0.1666666667
  9
$TRACEWID
 40
0.05
  9
$TEXTSTYLE
  7
Standard
  9
$CLAYER
  8
0
  9
$CELTYPE
  6
ByLayer
  9
$CECOLOR
 62
   256
  9
$CELTSCALE
 40
1.0
  9
$DISPSILH
 70
     0
  9
$DIMSCALE
 40
1.0
  9
$DIMASZ
 40
0.09
  9
$DIMEXO
 40
0.05
  9
$DIMDLI
 40
0.38
  9
$DIMRND
 40
0.0
  9
$DIMDLE
 40
0.0
  9
$DIMEXE
 40
0.0625
  9
$DIMTP
 40
0.0
  9
$DIMTM
 40
0.0
  9
$DIMTXT
 40
0.1666666667
  9
$DIMCEN
 40
0.09
  9
$DIMTSZ
 40
0.0
  9
$DIMTOL
 70
     0
  9
$DIMLIM
 70
     0
  9
$DIMTIH
 70
     1
  9
$DIMTOH
 70
     1
  9
$DIMSE1
 70
     0
  9
$DIMSE2
 70
     0
  9
$DIMTAD
 70
     0
  9
$DIMZIN
 70
     0
  9
$DIMBLK
  1

  9
$DIMASO
 70
     1
  9
$DIMSHO
 70
     1
  9
$DIMPOST
  1

  9
$DIMAPOST
  1

  9
$DIMALT
 70
     0
  9
$DIMALTD
 70
     2
  9
$DIMALTF
 40
25.4
  9
$DIMLFAC
 40
24.0
  9
$DIMTOFL
 70
     0
  9
$DIMTVP
 40
0.0
  9
$DIMTIX
 70
     0
  9
$DIMSOXD
 70
     0
  9
$DIMSAH
 70
     0
  9
$DIMBLK1
  1

  9
$DIMBLK2
  1

  9
$DIMSTYLE
  2
Standard
  9
$DIMCLRD
 70
     0
  9
$DIMCLRE
 70
     0
  9
$DIMCLRT
 70
     0
  9
$DIMTFAC
 40
1.0
  9
$DIMGAP
 40
0.06
  9
$DIMJUST
 70
     0
  9
$DIMSD1
 70
     0
  9
$DIMSD2
 70
     0
  9
$DIMTOLJ
 70
     1
  9
$DIMTZIN
 70
     0
  9
$DIMALTZ
 70
     0
  9
$DIMALTTZ
 70
     0
  9
$DIMUPT
 70
     0
  9
$DIMDEC
 70
     2
  9
$DIMTDEC
 70
     2
  9
$DIMALTU
 70
     2
  9
$DIMALTTD
 70
     2
  9
$DIMTXSTY
  7
Standard
  9
$DIMAUNIT
 70
     0
  9
$DIMADEC
 70
     0
  9
$DIMALTRND
 40
0.0
  9
$DIMAZIN
 70
     0
  9
$DIMDSEP
 70
    46
  9
$DIMATFIT
 70
     3
  9
$DIMFRAC
 70
     0
  9
$DIMLDRBLK
  1

  9
$DIMLUNIT
 70
     2
  9
$DIMLWD
 70
    -2
  9
$DIMLWE
 70
    -2
  9
$DIMTMOVE
 70
     0
  9
$LUNITS
 70
     2
  9
$LUPREC
 70
     2
  9
$SKETCHINC
 40
0.1
  9
$FILLETRAD
 40
0.5
  9
$AUNITS
 70
     0
  9
$AUPREC
 70
     0
  9
$MENU
  1
.
  9
$ELEVATION
 40
0.0
  9
$PELEVATION
 40
0.0
  9
$THICKNESS
 40
0.0
  9
$LIMCHECK
 70
     0
  9
$CHAMFERA
 40
0.5
  9
$CHAMFERB
 40
0.5
  9
$CHAMFERC
 40
1.0
  9
$CHAMFERD
 40
0.0
  9
$SKPOLY
 70
     0
  9
$TDCREATE
 40
2455464.423599514
  9
$TDUCREATE
 40
2455464.631932847
  9
$TDUPDATE
 40
2455464.423599525
  9
$TDUUPDATE
 40
2455464.631932859
  9
$TDINDWG
 40
0.0000000116
  9
$TDUSRTIMER
 40
0.0000000116
  9
$USRTIMER
 70
     1
  9
$ANGBASE
 50
0.0
  9
$ANGDIR
 70
     0
  9
$PDMODE
 70
     0
  9
$PDSIZE
 40
-1.0
  9
$PLINEWID
 40
0.0
  9
$SPLFRAME
 70
     0
  9
$SPLINETYPE
 70
     6
  9
$SPLINESEGS
 70
     8
  9
$HANDSEED
  5
180
  9
$SURFTAB1
 70
     6
  9
$SURFTAB2
 70
     6
  9
$SURFTYPE
 70
     6
  9
$SURFU
 70
     6
  9
$SURFV
 70
     6
  9
$UCSBASE
  2

  9
$UCSNAME
  2

  9
$UCSORG
 10
0.0
 20
0.0
 30
0.0
  9
$UCSXDIR
 10
1.0
 20
0.0
 30
0.0
  9
$UCSYDIR
 10
0.0
 20
1.0
 30
0.0
  9
$UCSORTHOREF
  2

  9
$UCSORTHOVIEW
 70
     0
  9
$UCSORGTOP
 10
0.0
 20
0.0
 30
0.0
  9
$UCSORGBOTTOM
 10
0.0
 20
0.0
 30
0.0
  9
$UCSORGLEFT
 10
0.0
 20
0.0
 30
0.0
  9
$UCSORGRIGHT
 10
0.0
 20
0.0
 30
0.0
  9
$UCSORGFRONT
 10
0.0
 20
0.0
 30
0.0
  9
$UCSORGBACK
 10
0.0
 20
0.0
 30
0.0
  9
$PUCSBASE
  2

  9
$PUCSNAME
  2

  9
$PUCSORG
 10
0.0
 20
0.0
 30
0.0
  9
$PUCSXDIR
 10
1.0
 20
0.0
 30
0.0
  9
$PUCSYDIR
 10
0.0
 20
1.0
 30
0.0
  9
$PUCSORTHOREF
  2

  9
$PUCSORTHOVIEW
 70
     0
  9
$PUCSORGTOP
 10
0.0
 20
0.0
 30
0.0
  9
$PUCSORGBOTTOM
 10
0.0
 20
0.0
 30
0.0
  9
$PUCSORGLEFT
 10
0.0
 20
0.0
 30
0.0
  9
$PUCSORGRIGHT
 10
0.0
 20
0.0
 30
0.0
  9
$PUCSORGFRONT
 10
0.0
 20
0.0
 30
0.0
  9
$PUCSORGBACK
 10
0.0
 20
0.0
 30
0.0
  9
$USERI1
 70
     0
  9
$USERI2
 70
     0
  9
$USERI3
 70
     0
  9
$USERI4
 70
     0
  9
$USERI5
 70
     0
  9
$USERR1
 40
0.0
  9
$USERR2
 40
0.0
  9
$USERR3
 40
0.0
  9
$USERR4
 40
0.0
  9
$USERR5
 40
0.0
  9
$WORLDVIEW
 70
     1
  9
$SHADEDGE
 70
     3
  9
$SHADEDIF
 70
    70
  9
$TILEMODE
 70
     1
  9
$MAXACTVP
 70
    64
  9
$PINSBASE
 10
0.0
 20
0.0
 30
0.0
  9
$PLIMCHECK
 70
     0
  9
$PEXTMIN
 10
1.0000000000E+20
 20
1.0000000000E+20
 30
1.0000000000E+20
  9
$PEXTMAX
 10
-1.0000000000E+20
 20
-1.0000000000E+20
 30
-1.0000000000E+20
  9
$PLIMMIN
 10
0.0
 20
0.0
  9
$PLIMMAX
 10
12.0
 20
9.0
  9
$UNITMODE
 70
     0
  9
$VISRETAIN
 70
     1
  9
$PLINEGEN
 70
     0
  9
$PSLTSCALE
 70
     1
  9
$TREEDEPTH
 70
  3020
  9
$CMLSTYLE
  2
Standard
  9
$CMLJUST
 70
     0
  9
$CMLSCALE
 40
1.0
  9
$PROXYGRAPHICS
 70
     1
  9
$MEASUREMENT
 70
     0
  9
$CELWEIGHT
370
    -1
  9
$ENDCAPS
280
     0
  9
$JOINSTYLE
280
     0
  9
$LWDISPLAY
290
     1
  9
$INSUNITS
 70
     1
  9
$HYPERLINKBASE
  1

  9
$STYLESHEET
  1

  9
$XEDIT
290
     1
  9
$CEPSNTYPE
380
     0
  9
$PSTYLEMODE
290
     1
  9
$FINGERPRINTGUID
  2
{3BAF497D-17FC-42AC-AD54-7BA314F35C04}
  9
$VERSIONGUID
  2
{FAEB1C32-E019-11D5-929B-00C0DF256EC4}
  9
$EXTNAMES
290
     1
  9
$PSVPSCALE
 40
0.0
  9
$OLESTARTUP
290
     0
  0
ENDSEC
  0
SECTION
  2
CLASSES
  0
CLASS
  1
ACDBDICTIONARYWDFLT
  2
AcDbDictionaryWithDefault
  3
ObjectDBX Classes
 90
        0
280
     0
281
     0
  0
CLASS
  1
VISUALSTYLE
  2
AcDbVisualStyle
  3
ObjectDBX Classes
 90
     4095
280
     0
281
     0
  0
CLASS
  1
MATERIAL
  2
AcDbMaterial
  3
ObjectDBX Classes
 90
     1153
280
     0
281
     0
  0
CLASS
  1
SCALE
  2
AcDbScale
  3
ObjectDBX Classes
 90
     1153
280
     0
281
     0
  0
CLASS
  1
DICTIONARYVAR
  2
AcDbDictionaryVar
  3
ObjectDBX Classes
 90
        0
280
     0
281
     0
  0
CLASS
  1
ACDBPLACEHOLDER
  2
AcDbPlaceHolder
  3
ObjectDBX Classes
 90
        0
280
     0
281
     0
  0
CLASS
  1
LAYOUT
  2
AcDbLayout
  3
ObjectDBX Classes
 90
        0
280
     0
281
     0
  0
ENDSEC
  0
SECTION
  2
TABLES
  0
TABLE
  2
VPORT
  5
8
330
0
100
AcDbSymbolTable
 70
     1
  0
VPORT
  5
29
330
8
100
AcDbSymbolTableRecord
100
AcDbViewportTableRecord
  2
*Active
 70
     0
 10
0.0
 20
0.0
 11
1.0
 21
1.0
 12
35.0
 22
21.0
 13
0.0
 23
0.0
 14
0.5
 24
0.5
 15
0.5
 25
0.5
 16
0.0
 26
0.0
 36
1.0
 17
0.0
 27
0.0
 37
0.0
 40
42.0
 41
1.6666666667
 42
50.0
 43
0.0
 44
0.0
 50
0.0
 51
0.0
 71
     0
 72
  2000
 73
     1
 74
     3
 75
     0
 76
     0
 77
     0
 78
     0
281
     0
 65
     1
110
0.0
120
0.0
130
0.0
111
1.0
121
0.0
131
0.0
112
0.0
122
1.0
132
0.0
 79
     0
146
0.0
  0
ENDTAB
  0
TABLE
  2
LTYPE
  5
5
330
0
100
AcDbSymbolTable
 70
     6
  0
LTYPE
  5
14
330
5
100
AcDbSymbolTableRecord
100
AcDbLinetypeTableRecord
  2
ByBlock
 70
     0
  3

 72
    65
 73
     0
 40
0.0
  0
LTYPE
  5
15
330
5
100
AcDbSymbolTableRecord
100
AcDbLinetypeTableRecord
  2
ByLayer
 70
     0
  3

 72
    65
 73
     0
 40
0.0
  0
LTYPE
  5
16
330
5
100
AcDbSymbolTableRecord
100
AcDbLinetypeTableRecord
  2
Continuous
 70
     0
  3
Solid line
 72
    65
 73
     0
 40
0.0
  0
LTYPE
  5
3F
330
5
100
AcDbSymbolTableRecord
100
AcDbLinetypeTableRecord
  2
HIDDEN
 70
     0
  3
Hidden __ __ __ __ __ __ __ __ __ __ __ __ __ __
 72
    65
 73
     2
 40
0.075
 49
0.05
 74
     0
 49
-0.025
 74
     0
  0
LTYPE
  5
40
330
5
100
AcDbSymbolTableRecord
100
AcDbLinetypeTableRecord
  2
PHANTOM
 70
     0
  3
Phantom ______  __  __  ______  __  __  ______
 72
    65
 73
     6
 40
0.5
 49
0.25
 74
     0
 49
-0.05
 74
     0
 49
0.05
 74
     0
 49
-0.05
 74
     0
 49
0.05
 74
     0
 49
-0.05
 74
     0
  0
LTYPE
  5
41
330
5
100
AcDbSymbolTableRecord
100
AcDbLinetypeTableRecord
  2
CENTER
 70
     0
  3
Center ____ _ ____ _ ____ _ ____ _ ____ _ ____
 72
    65
 73
     4
 40
0.4
 49
0.25
 74
     0
 49
-0.05
 74
     0
 49
0.05
 74
     0
 49
-0.05
 74
     0
  0
LTYPE
  5
42
330
5
100
AcDbSymbolTableRecord
100
AcDbLinetypeTableRecord
  2
CENTERX2
 70
     0
  3
Center (2x) ________  __  ________  __  _____
 72
    65
 73
     4
 40
0.8
 49
0.5
 74
     0
 49
-0.1
 74
     0
 49
0.1
 74
     0
 49
-0.1
 74
     0
  0
LTYPE
  5
43
330
5
100
AcDbSymbolTableRecord
100
AcDbLinetypeTableRecord
  2
DOT2
 70
     0
  3
Dot (.5x) ........................................
 72
    65
 73
     2
 40
0.025
 49
0.0
 74
     0
 49
-0.025
 74
     0
  0
ENDTAB
  0
TABLE
  2
LAYER
  5
2
330
0
100
AcDbSymbolTable
 70
     2
  0
LAYER
  5
10
330
2
100
AcDbSymbolTableRecord
100
AcDbLayerTableRecord
  2
0
 70
     0
 62
     7
  6
Continuous
370
    -3
390
F
  0
LAYER
  5
44
330
2
100
AcDbSymbolTableRecord
100
AcDbLayerTableRecord
  2
FORMAT
 70
     0
 62
     7
  6
Continuous
370
    -3
390
F
  0
ENDTAB
  0
TABLE
  2
STYLE
  5
3
330
0
100
AcDbSymbolTable
 70
     3
  0
STYLE
  5
11
330
3
100
AcDbSymbolTableRecord
100
AcDbTextStyleTableRecord
  2
Standard
 70
     0
 40
0.0
 41
1.0
 50
0.0
 71
     0
 42
0.2
  3
txt
  4

  0
STYLE
  5
4B
330
3
100
AcDbSymbolTableRecord
100
AcDbTextStyleTableRecord
  2
SLDTEXTSTYLE0
 70
     0
 40
0.0
 41
0.96
 50
0.0
 71
     0
 42
0.2
  3
TXT
  4

  0
STYLE
  5
70
330
3
100
AcDbSymbolTableRecord
100
AcDbTextStyleTableRecord
  2
SLDTEXTSTYLE1
 70
     0
 40
0.0
 41
0.8942857143
 50
0.0
 71
     0
 42
0.2
  3
TXT
  4

  0
ENDTAB
  0
TABLE
  2
VIEW
  5
6
330
0
100
AcDbSymbolTable
 70
     0
  0
ENDTAB
  0
TABLE
  2
UCS
  5
7
330
0
100
AcDbSymbolTable
 70
     0
  0
ENDTAB
  0
TABLE
  2
APPID
  5
9
330
0
100
AcDbSymbolTable
 70
     1
  0
APPID
  5
12
330
9
100
AcDbSymbolTableRecord
100
AcDbRegAppTableRecord
  2
ACAD
 70
     0
  0
ENDTAB
  0
TABLE
  2
DIMSTYLE
  5
A
330
0
100
AcDbSymbolTable
 70
     1
100
AcDbDimStyleTable
  0
DIMSTYLE
105
27
330
A
100
AcDbSymbolTableRecord
100
AcDbDimStyleTableRecord
  2
Standard
 70
     0
340
11
  0
ENDTAB
  0
TABLE
  2
BLOCK_RECORD
  5
1
330
0
100
AcDbSymbolTable
 70
     3
  0
BLOCK_RECORD
  5
1F
330
1
100
AcDbSymbolTableRecord
100
AcDbBlockTableRecord
  2
*Model_Space
340
22
  0
BLOCK_RECORD
  5
1B
330
1
100
AcDbSymbolTableRecord
100
AcDbBlockTableRecord
  2
*Paper_Space
340
1E
  0
BLOCK_RECORD
  5
23
330
1
100
AcDbSymbolTableRecord
100
AcDbBlockTableRecord
  2
*Paper_Space0
340
26
  0
BLOCK_RECORD
  5
45
330
1
100
AcDbSymbolTableRecord
100
AcDbBlockTableRecord
  2
SW_NOTE_0
340
0
102
{BLKREFS
331
73
102
}
  0
BLOCK_RECORD
  5
48
330
1
100
AcDbSymbolTableRecord
100
AcDbBlockTableRecord
  2
SW_NOTE_0_1
340
0
102
{BLKREFS
331
72
102
}
  0
ENDTAB
  0
ENDSEC
  0
SECTION
  2
BLOCKS
  0
BLOCK
  5
20
330
1F
100
AcDbEntity
  8
0
100
AcDbBlockBegin
  2
*Model_Space
 70
     0
 10
0.0
 20
0.0
 30
0.0
  3
*Model_Space
  1

  0
ENDBLK
  5
21
330
1F
100
AcDbEntity
  8
0
100
AcDbBlockEnd
  0
BLOCK
  5
1C
330
1B
100
AcDbEntity
 67
     1
  8
0
100
AcDbBlockBegin
  2
*Paper_Space
 70
     0
 10
0.0
 20
0.0
 30
0.0
  3
*Paper_Space
  1

  0
ENDBLK
  5
1D
330
1B
100
AcDbEntity
 67
     1
  8
0
100
AcDbBlockEnd
  0
BLOCK
  5
24
330
23
100
AcDbEntity
  8
0
100
AcDbBlockBegin
  2
*Paper_Space0
 70
     0
 10
0.0
 20
0.0
 30
0.0
  3
*Paper_Space0
  1

  0
ENDBLK
  5
25
330
23
100
AcDbEntity
  8
0
100
AcDbBlockEnd
  0
BLOCK
  5
46
330
45
100
AcDbEntity
  8
0
100
AcDbBlockBegin
  2
SW_NOTE_0
 70
     0
 10
0.0
 20
0.0
 30
0.0
  3
SW_NOTE_0
  1

  0
INSERT
  5
72
330
45
100
AcDbEntity
  8
FORMAT
 62
     7
100
AcDbBlockReference
  2
SW_NOTE_0_1
 10
6.1082780987
 20
1.6757404968
 30
0.0
  0
ENDBLK
  5
47
330
45
100
AcDbEntity
  8
0
100
AcDbBlockEnd
  0
BLOCK
  5
49
330
48
100
AcDbEntity
  8
0
100
AcDbBlockBegin
  2
SW_NOTE_0_1
 70
     0
 10
0.0
 20
0.0
 30
0.0
  3
SW_NOTE_0_1
  1

  0
MTEXT
  5
6E
330
48
100
AcDbEntity
  8
FORMAT
 62
     0
100
AcDbMText
 10
0.0
 20
1.7456125643
 30
0.0
 40
1.3541666667
 41
0.0
 71
     1
 72
     1
  1
Titus
  7
SLDTEXTSTYLE0
 73
     1
 44
1.0
  0
MTEXT
  5
6F
330
48
100
AcDbEntity
  8
FORMAT
 62
     0
100
AcDbMText
 10
0.0
 20
-1.8654984665
 30
0.0
 40
1.3541666667
 41
0.0
 71
     1
 72
     1
  1
MDV
  7
SLDTEXTSTYLE0
 73
     1
 44
1.0
  0
MTEXT
  5
71
330
48
100
AcDbEntity
  8
FORMAT
 62
     0
100
AcDbMText
 10
0.0
 20
-5.4766094973
 30
0.0
 40
1.3541666667
 41
0.0
 71
     1
 72
     1
  1
Size 10
  7
SLDTEXTSTYLE1
 73
     1
 44
1.0
  0
ENDBLK
  5
4A
330
48
100
AcDbEntity
  8
0
100
AcDbBlockEnd
  0
ENDSEC
  0
SECTION
  2
ENTITIES
  0
INSERT
  5
73
330
1F
100
AcDbEntity
  8
FORMAT
100
AcDbBlockReference
  2
SW_NOTE_0
 10
18.8449451768
 20
21.2381043442
 30
0.0
  0
ARC
  5
74
330
1F
100
AcDbEntity
  8
0
  6
Continuous
 62
     7
370
    30
100
AcDbCircle
 10
5.979005256
 20
9.8574169109
 30
0.0
 40
0.1249999999999991
100
AcDbArc
 50
180.0
 51
244.9126169237
  0
LINE
  5
75
330
1F
100
AcDbEntity
  8
0
  6
Continuous
 62
     7
370
    30
100
AcDbLine
 10
2.6980042627
 20
9.8574169106
 30
0.0
 11
5.8540044977
 21
9.8574169106
 31
0.0
  0
ARC
  5
76
330
1F
100
AcDbEntity
  8
0
  6
Continuous
 62
     7
370
    30
100
AcDbCircle
 10
5.979005256
 20
32.6064169109
 30
0.0
 40
0.1250000000000054
100
AcDbArc
 50
115.0873830763
 51
180.0
  0
LINE
  5
77
330
1F
100
AcDbEntity
  8
0
  6
Continuous
 62
     7
370
    30
100
AcDbLine
 10
5.8540044977
 20
32.6064172055
 30
0.0
 11
2.6980042627
 21
32.6064172055
 31
0.0
  0
LINE
  5
78
330
1F
100
AcDbEntity
  8
0
  6
Continuous
 62
     7
370
    30
100
AcDbLine
 10
5.3880041209
 20
27.0862491883
 30
0.0
 11
5.3880041209
 21
27.5006129349
 31
0.0
  0
LINE
  5
79
330
1F
100
AcDbEntity
  8
0
  6
Continuous
 62
     7
370
    30
100
AcDbLine
 10
5.3880041209
 20
28.2505220852
 30
0.0
 11
5.3880041209
 21
27.8363132168
 31
0.0
  0
LINE
  5
7A
330
1F
100
AcDbEntity
  8
0
  6
Continuous
 62
     7
370
    30
100
AcDbLine
 10
5.3680060586
 20
27.4833011882
 30
0.0
 11
5.3880041209
 21
27.4833011882
 31
0.0
  0
LINE
  5
7B
330
1F
100
AcDbEntity
  8
0
  6
Continuous
 62
     7
370
    30
100
AcDbLine
 10
5.1189618956
 20
27.365823132
 30
0.0
 11
5.2597438426
 21
27.5003530445
 31
0.0
  0
LINE
  5
7C
330
1F
100
AcDbEntity
  8
0
  6
Continuous
 62
     7
370
    30
100
AcDbLine
 10
5.2830060805
 20
27.0816603346
 30
0.0
 11
5.2830060805
 21
27.5071629925
 31
0.0
  0
LINE
  5
7D
330
1F
100
AcDbEntity
  8
0
  6
Continuous
 62
     7
370
    30
100
AcDbLine
 10
5.2830060805
 20
28.2572569407
 30
0.0
 11
5.2830060805
 21
27.8316645239
 31
0.0
  0
LWPOLYLINE
  5
7E
330
1F
100
AcDbEntity
  8
0
  6
Continuous
 62
     7
370
    30
100
AcDbPolyline
 90
        3
 70
   128
 43
0.0
 10
5.3030041429
 20
31.1970900195
 10
5.2607012715
 20
31.1821595253
 10
5.2446549502
 20
31.1727823536
  0
LWPOLYLINE
  5
7F
330
1F
100
AcDbEntity
  8
0
  6
Continuous
 62
     7
370
    30
100
AcDbPolyline
 90
        3
 70
   128
 43
0.0
 10
5.2441480761
 20
18.2984393392
 10
5.2607012715
 20
18.3081596335
 10
5.3030041429
 20
18.323090421
  0
LWPOLYLINE
  5
80
330
1F
100
AcDbEntity
  8
0
  6
Continuous
 62
     7
370
    30
100
AcDbPolyline
 90
       16
 70
   128
 43
0.0
 10
5.2942183244
 20
11.3668464602
 10
5.278810289
 20
11.358869059
 10
5.2652631388
 20
11.3445310913
 10
5.2605041538
 20
11.32761886
 10
5.2652631388
 20
11.3107066287
 10
5.278810289
 20
11.296368661
 10
5.2990876014
 20
11.286788505
 10
5.3230045518
 20
11.2834245972
 10
5.3469238488
 20
11.286788505
 10
5.3671988146
 20
11.296368661
 10
5.3807483114
 20
11.3107066287
 10
5.3855049498
 20
11.32761886
 10
5.3807483114
 20
11.3445310913
 10
5.3671988146
 20
11.358869059
 10
5.3469238488
 20
11.3684486283
 10
5.3441876671
 20
11.3691972063
  0
LINE
  5
81
330
1F
100
AcDbEntity
  8
0
  6
Continuous
 62
     7
370
    30
100
AcDbLine
 10
5.3430049608
 20
18.3193778906
 30
0.0
 11
5.3680060586
 21
18.3193778906
 31
0.0
  0
LINE
  5
82
330
1F
100
AcDbEntity
  8
0
  6
Continuous
 62
     7
370
    30
100
AcDbLine
 10
5.3030041429
 20
18.3193778906
 30
0.0
 11
5.2888445198
 21
18.3193778906
 31
0.0
  0
ARC
  5
83
330
1F
100
AcDbEntity
  8
0
  6
Continuous
 62
     7
370
    30
100
AcDbCircle
 10
5.3170478033
 20
18.2057598771
 30
0.0
 40
0.05908796817623
100
AcDbArc
 50
84.2140961172
 51
151.1261040515
  0
ARC
  5
84
330
1F
100
AcDbEntity
  8
0
  6
Continuous
 62
     7
370
    30
100
AcDbCircle
 10
5.328966567
 20
18.2057634791
 30
0.0
 40
0.0590849156735507
100
AcDbArc
 50
28.9120687954
 51
95.7913371862
  0
LINE
  5
85
330
1F
100
AcDbEntity
  8
0
  6
Continuous
 62
     7
370
    30
100
AcDbLine
 10
5.3030041429
 20
18.3193778906
 30
0.0
 11
5.3030041429
 21
18.3263280503
 31
0.0
  0
LINE
  5
86
330
1F
100
AcDbEntity
  8
0
  6
Continuous
 62
     7
370
    30
100
AcDbLine
 10
5.3430049608
 20
18.3193778906
 30
0.0
 11
5.3430049608
 21
18.3255090731
 31
0.0
  0
LWPOLYLINE
  5
87
330
1F
100
AcDbEntity
  8
0
  6
Continuous
 62
     7
370
    30
100
AcDbPolyline
 90
        8
 70
   128
 43
0.0
 10
5.3230045518
 20
24.157424489
 10
5.2990876014
 20
24.1607886901
 10
5.278810289
 20
24.1703688461
 10
5.2652631388
 20
24.1847065205
 10
5.2605041538
 20
24.2016187518
 10
5.2652631388
 20
24.2185312764
 10
5.278810289
 20
24.2328686574
 10
5.2972900755
 20
24.2418985265
  0
LWPOLYLINE
  5
88
330
1F
100
AcDbEntity
  8
0
  6
Continuous
 62
     7
370
    30
100
AcDbPolyline
 90
        8
 70
   128
 43
0.0
 10
5.3511783063
 20
24.2410689894
 10
5.3671988146
 20
24.2328686574
 10
5.3807483114
 20
24.2185312764
 10
5.3855049498
 20
24.2016187518
 10
5.3807483114
 20
24.1847065205
 10
5.3671988146
 20
24.1703688461
 10
5.3469238488
 20
24.1607886901
 10
5.3230045518
 20
24.157424489
  0
LINE
  5
89
330
1F
100
AcDbEntity
  8
0
  6
Continuous
 62
     7
370
    30
100
AcDbLine
 10
5.3030041429
 20
31.1933776357
 30
0.0
 11
5.2888445198
 21
31.1933776357
 31
0.0
  0
LINE
  5
8A
330
1F
100
AcDbEntity
  8
0
  6
Continuous
 62
     7
370
    30
100
AcDbLine
 10
5.3430049608
 20
31.1933776357
 30
0.0
 11
5.3680060586
 21
31.1933776357
 31
0.0
  0
ARC
  5
8B
330
1F
100
AcDbEntity
  8
0
  6
Continuous
 62
     7
370
    30
100
AcDbCircle
 10
5.3230449994
 20
31.072519935
 30
0.0
 40
0.0679022349487252
100
AcDbArc
 50
32.0869945142
 51
148.3234169173
  0
LINE
  5
8C
330
1F
100
AcDbEntity
  8
0
  6
Continuous
 62
     7
370
    30
100
AcDbLine
 10
5.3030041429
 20
31.1933776357
 30
0.0
 11
5.3030041429
 21
31.2003283821
 31
0.0
  0
LINE
  5
8D
330
1F
100
AcDbEntity
  8
0
  6
Continuous
 62
     7
370
    30
100
AcDbLine
 10
5.3430049608
 20
31.1933776357
 30
0.0
 11
5.3430049608
 21
31.1995094049
 31
0.0
  0
LINE
  5
8E
330
1F
100
AcDbEntity
  8
0
  6
Continuous
 62
     7
370
    30
100
AcDbLine
 10
5.3680060586
 20
27.5077484791
 30
0.0
 11
5.3680060586
 21
27.0826230435
 31
0.0
  0
LINE
  5
8F
330
1F
100
AcDbEntity
  8
0
  6
Continuous
 62
     7
370
    30
100
AcDbLine
 10
5.3680060586
 20
28.2578917067
 30
0.0
 11
5.3680060586
 21
27.8326671256
 31
0.0
  0
ARC
  5
90
330
1F
100
AcDbEntity
  8
0
  6
Continuous
 62
     7
370
    30
100
AcDbCircle
 10
59.677005256
 20
25.8309169109
 30
0.0
 40
0.0680000000000014
100
AcDbArc
 50
270.0
 51
90.0
  0
LINE
  5
91
330
1F
100
AcDbEntity
  8
0
  6
Continuous
 62
     7
370
    30
100
AcDbLine
 10
59.6770057698
 20
25.8019169317
 30
0.0
 11
59.6770057698
 21
25.7629169555
 31
0.0
  0
ARC
  5
92
330
1F
100
AcDbEntity
  8
0
  6
Continuous
 62
     7
370
    30
100
AcDbCircle
 10
59.677005256
 20
25.8309169109
 30
0.0
 40
0.0289999999999999
100
AcDbArc
 50
270.0
 51
90.0
  0
LINE
  5
93
330
1F
100
AcDbEntity
  8
0
  6
Continuous
 62
     7
370
    30
100
AcDbLine
 10
59.6770057698
 20
25.8599170616
 30
0.0
 11
59.6770057698
 21
25.8989170378
 31
0.0
  0
LINE
  5
94
330
1F
100
AcDbEntity
  8
0
  6
Continuous
 62
     7
370
    30
100
AcDbLine
 10
59.2450058536
 20
25.8599170616
 30
0.0
 11
59.2450058536
 21
25.8989170378
 31
0.0
  0
LINE
  5
95
330
1F
100
AcDbEntity
  8
0
  6
Continuous
 62
     7
370
    30
100
AcDbLine
 10
59.2450058536
 20
25.8989170378
 30
0.0
 11
59.6740044178
 21
25.8989170378
 31
0.0
  0
LINE
  5
96
330
1F
100
AcDbEntity
  8
0
  6
Continuous
 62
     7
370
    30
100
AcDbLine
 10
59.6740044178
 20
25.8989170378
 30
0.0
 11
59.6740044178
 21
25.8599170616
 31
0.0
  0
LINE
  5
97
330
1F
100
AcDbEntity
  8
0
  6
Continuous
 62
     7
370
    30
100
AcDbLine
 10
59.6740044178
 20
25.8599170616
 30
0.0
 11
59.2450058536
 21
25.8599170616
 31
0.0
  0
LINE
  5
98
330
1F
100
AcDbEntity
  8
0
  6
Continuous
 62
     7
370
    30
100
AcDbLine
 10
55.7040041995
 20
25.7339171839
 30
0.0
 11
55.7040041995
 21
25.7319166737
 31
0.0
  0
LINE
  5
99
330
1F
100
AcDbEntity
  8
0
  6
Continuous
 62
     7
370
    30
100
AcDbLine
 10
55.7040041995
 20
25.7339171839
 30
0.0
 11
59.6770057698
 21
25.7339171839
 31
0.0
  0
CIRCLE
  5
9A
330
1F
100
AcDbEntity
  8
0
  6
Continuous
 62
     7
370
    30
100
AcDbCircle
 10
58.495005256
 20
25.3879169109
 30
0.0
 40
0.0805000000000007
  0
CIRCLE
  5
9B
330
1F
100
AcDbEntity
  8
0
  6
Continuous
 62
     7
370
    30
100
AcDbCircle
 10
56.120005256
 20
25.3879169109
 30
0.0
 40
0.0805000000000007
  0
LINE
  5
9C
330
1F
100
AcDbEntity
  8
0
  6
Continuous
 62
     7
370
    30
100
AcDbLine
 10
59.6770057698
 20
25.690916774
 30
0.0
 11
59.6770057698
 21
25.7339171839
 31
0.0
  0
LINE
  5
9D
330
1F
100
AcDbEntity
  8
0
  6
Continuous
 62
     7
370
    30
100
AcDbLine
 10
59.6770057698
 20
25.8599170616
 30
0.0
 11
59.6740044178
 21
25.8599170616
 31
0.0
  0
LINE
  5
9E
330
1F
100
AcDbEntity
  8
0
  6
Continuous
 62
     7
370
    30
100
AcDbLine
 10
59.6770057698
 20
25.8989170378
 30
0.0
 11
59.6740044178
 21
25.8989170378
 31
0.0
  0
LINE
  5
9F
330
1F
100
AcDbEntity
  8
0
  6
Continuous
 62
     7
370
    30
100
AcDbLine
 10
59.6770057698
 20
25.7629169555
 30
0.0
 11
59.6770057698
 21
25.7339171839
 31
0.0
  0
LINE
  5
A0
330
1F
100
AcDbEntity
  8
0
  6
Continuous
 62
     7
370
    30
100
AcDbLine
 10
55.7040041995
 20
25.7339171839
 30
0.0
 11
55.7040041995
 21
25.7629169555
 31
0.0
  0
LINE
  5
A1
330
1F
100
AcDbEntity
  8
0
  6
Continuous
 62
     7
370
    30
100
AcDbLine
 10
55.7040041995
 20
25.8019169317
 30
0.0
 11
59.6770057698
 21
25.8019169317
 31
0.0
  0
LINE
  5
A2
330
1F
100
AcDbEntity
  8
0
  6
Continuous
 62
     7
370
    30
100
AcDbLine
 10
55.7040041995
 20
25.8019169317
 30
0.0
 11
55.7040041995
 21
25.7629169555
 31
0.0
  0
ARC
  5
A3
330
1F
100
AcDbEntity
  8
0
  6
Continuous
 62
     7
370
    30
100
AcDbCircle
 10
55.704005256
 20
25.8309169109
 30
0.0
 40
0.068000000000008
100
AcDbArc
 50
245.6842608289
 51
270.0
  0
ARC
  5
A4
330
1F
100
AcDbEntity
  8
0
  6
Continuous
 62
     7
370
    30
100
AcDbCircle
 10
55.704005256
 20
25.8309169109
 30
0.0
 40
0.0290000000000087
100
AcDbArc
 50
195.0901851798
 51
270.0
  0
LINE
  5
A5
330
1F
100
AcDbEntity
  8
0
  6
Continuous
 62
     7
370
    30
100
AcDbLine
 10
55.7040041995
 20
16.7319168558
 30
0.0
 11
55.7040041995
 21
16.7299169322
 31
0.0
  0
LINE
  5
A6
330
1F
100
AcDbEntity
  8
0
  6
Continuous
 62
     7
370
    30
100
AcDbLine
 10
59.6770057698
 20
16.7299169322
 30
0.0
 11
59.6770057698
 21
16.7729170488
 31
0.0
  0
LINE
  5
A7
330
1F
100
AcDbEntity
  8
0
  6
Continuous
 62
     7
370
    30
100
AcDbLine
 10
59.6770057698
 20
16.7299169322
 30
0.0
 11
55.7040041995
 21
16.7299169322
 31
0.0
  0
CIRCLE
  5
A8
330
1F
100
AcDbEntity
  8
0
  6
Continuous
 62
     7
370
    30
100
AcDbCircle
 10
58.495005256
 20
17.0759169109
 30
0.0
 40
0.0805000000000007
  0
CIRCLE
  5
A9
330
1F
100
AcDbEntity
  8
0
  6
Continuous
 62
     7
370
    30
100
AcDbCircle
 10
56.120005256
 20
17.0759169109
 30
0.0
 40
0.0804999999999971
  0
LINE
  5
AA
330
1F
100
AcDbEntity
  8
0
  6
Continuous
 62
     7
370
    30
100
AcDbLine
 10
55.7040041995
 20
16.7009168672
 30
0.0
 11
55.7040041995
 21
16.7299169322
 31
0.0
  0
LINE
  5
AB
330
1F
100
AcDbEntity
  8
0
  6
Continuous
 62
     7
370
    30
100
AcDbLine
 10
59.6770057698
 20
16.6619168911
 30
0.0
 11
55.7040041995
 21
16.6619168911
 31
0.0
  0
LINE
  5
AC
330
1F
100
AcDbEntity
  8
0
  6
Continuous
 62
     7
370
    30
100
AcDbLine
 10
59.6770057698
 20
16.7299169322
 30
0.0
 11
59.6770057698
 21
16.7009168672
 31
0.0
  0
LINE
  5
AD
330
1F
100
AcDbEntity
  8
0
  6
Continuous
 62
     7
370
    30
100
AcDbLine
 10
59.6770057698
 20
16.6039170544
 30
0.0
 11
59.6770057698
 21
16.564916785
 31
0.0
  0
LINE
  5
AE
330
1F
100
AcDbEntity
  8
0
  6
Continuous
 62
     7
370
    30
100
AcDbLine
 10
59.6740044178
 20
16.6039170544
 30
0.0
 11
59.6740044178
 21
16.564916785
 31
0.0
  0
LINE
  5
AF
330
1F
100
AcDbEntity
  8
0
  6
Continuous
 62
     7
370
    30
100
AcDbLine
 10
59.6740044178
 20
16.6039170544
 30
0.0
 11
59.6770057698
 21
16.6039170544
 31
0.0
  0
LINE
  5
B0
330
1F
100
AcDbEntity
  8
0
  6
Continuous
 62
     7
370
    30
100
AcDbLine
 10
59.6740044178
 20
16.564916785
 30
0.0
 11
59.6770057698
 21
16.564916785
 31
0.0
  0
LINE
  5
B1
330
1F
100
AcDbEntity
  8
0
  6
Continuous
 62
     7
370
    30
100
AcDbLine
 10
59.6770057698
 20
16.6619168911
 30
0.0
 11
59.6770057698
 21
16.7009168672
 31
0.0
  0
ARC
  5
B2
330
1F
100
AcDbEntity
  8
0
  6
Continuous
 62
     7
370
    30
100
AcDbCircle
 10
59.677005256
 20
16.6329169109
 30
0.0
 40
0.0289999999999999
100
AcDbArc
 50
270.0
 51
90.0
  0
ARC
  5
B3
330
1F
100
AcDbEntity
  8
0
  6
Continuous
 62
     7
370
    30
100
AcDbCircle
 10
59.677005256
 20
16.6329169109
 30
0.0
 40
0.0680000000000014
100
AcDbArc
 50
270.0
 51
90.0
  0
LINE
  5
B4
330
1F
100
AcDbEntity
  8
0
  6
Continuous
 62
     7
370
    30
100
AcDbLine
 10
59.2450058536
 20
16.564916785
 30
0.0
 11
59.2450058536
 21
16.6039170544
 31
0.0
  0
LINE
  5
B5
330
1F
100
AcDbEntity
  8
0
  6
Continuous
 62
     7
370
    30
100
AcDbLine
 10
59.2450058536
 20
16.6039170544
 30
0.0
 11
59.6740044178
 21
16.6039170544
 31
0.0
  0
LINE
  5
B6
330
1F
100
AcDbEntity
  8
0
  6
Continuous
 62
     7
370
    30
100
AcDbLine
 10
59.6740044178
 20
16.564916785
 30
0.0
 11
59.2450058536
 21
16.564916785
 31
0.0
  0
ARC
  5
B7
330
1F
100
AcDbEntity
  8
0
  6
Continuous
 62
     7
370
    30
100
AcDbCircle
 10
55.704005256
 20
16.6329169109
 30
0.0
 40
0.0680000000000015
100
AcDbArc
 50
90.0
 51
114.3157391711
  0
LINE
  5
B8
330
1F
100
AcDbEntity
  8
0
  6
Continuous
 62
     7
370
    30
100
AcDbLine
 10
55.7040041995
 20
16.6619168911
 30
0.0
 11
55.7040041995
 21
16.7009168672
 31
0.0
  0
ARC
  5
B9
330
1F
100
AcDbEntity
  8
0
  6
Continuous
 62
     7
370
    30
100
AcDbCircle
 10
55.704005256
 20
16.6329169109
 30
0.0
 40
0.0290000000000078
100
AcDbArc
 50
90.0
 51
164.9098148202
  0
ARC
  5
BA
330
1F
100
AcDbEntity
  8
0
  6
Continuous
 62
     7
370
    30
100
AcDbCircle
 10
55.261005256
 20
21.2319169109
 30
0.0
 40
0.0470000000000113
100
AcDbArc
 50
180.0
 51
283.0269950943
  0
ARC
  5
BB
330
1F
100
AcDbEntity
  8
0
  6
Continuous
 62
     7
370
    30
100
AcDbCircle
 10
55.261005256
 20
21.2319169109
 30
0.0
 40
0.0470000000000113
100
AcDbArc
 50
31.7332750096
 51
180.0
  0
ARC
  5
BC
330
1F
100
AcDbEntity
  8
0
  6
Continuous
 62
     7
370
    30
100
AcDbCircle
 10
55.261005256
 20
33.2319169109
 30
0.0
 40
0.0470000000000033
100
AcDbArc
 50
180.0
 51
283.0269947902
  0
ARC
  5
BD
330
1F
100
AcDbEntity
  8
0
  6
Continuous
 62
     7
370
    30
100
AcDbCircle
 10
55.261005256
 20
33.2319169109
 30
0.0
 40
0.0469999999999996
100
AcDbArc
 50
31.733275317
 51
180.0
  0
ARC
  5
BE
330
1F
100
AcDbEntity
  8
0
  6
Continuous
 62
     7
370
    30
100
AcDbCircle
 10
55.261005256
 20
9.2319169109
 30
0.0
 40
0.0470000000000113
100
AcDbArc
 50
180.0
 51
283.0269833787
  0
ARC
  5
BF
330
1F
100
AcDbEntity
  8
0
  6
Continuous
 62
     7
370
    30
100
AcDbCircle
 10
55.261005256
 20
9.2319169109
 30
0.0
 40
0.0470000000000113
100
AcDbArc
 50
31.7332865624
 51
180.0
  0
LWPOLYLINE
  5
C0
330
1F
100
AcDbEntity
  8
0
  6
Continuous
 62
     7
370
    30
100
AcDbPolyline
 90
        3
 70
   128
 43
0.0
 10
55.6075573137
 20
7.7450910723
 10
55.6157963652
 20
7.7521262977
 10
55.62288087
 20
7.7604334018
  0
CIRCLE
  5
C1
330
1F
100
AcDbEntity
  8
0
  6
Continuous
 62
     7
370
    30
100
AcDbCircle
 10
6.386005256
 20
21.2319169109
 30
0.0
 40
0.0470000000000006
  0
CIRCLE
  5
C2
330
1F
100
AcDbEntity
  8
0
  6
Continuous
 62
     7
370
    30
100
AcDbCircle
 10
6.386005256
 20
9.2319169109
 30
0.0
 40
0.0470000000000006
  0
CIRCLE
  5
C3
330
1F
100
AcDbEntity
  8
0
  6
Continuous
 62
     7
370
    30
100
AcDbCircle
 10
6.386005256
 20
33.2319169109
 30
0.0
 40
0.0470000000000006
  0
LINE
  5
C4
330
1F
100
AcDbEntity
  8
0
  6
Continuous
 62
     7
370
    30
100
AcDbLine
 10
5.9660049105
 20
7.6947556538
 30
0.0
 11
5.9260040926
 21
7.6947556538
 31
0.0
  0
LINE
  5
C5
330
1F
100
AcDbEntity
  8
0
  6
Continuous
 62
     7
370
    30
100
AcDbLine
 10
5.9260040926
 20
7.7597552229
 30
0.0
 11
5.9260040926
 21
7.6947556538
 31
0.0
  0
LINE
  5
C6
330
1F
100
AcDbEntity
  8
0
  6
Continuous
 62
     7
370
    30
100
AcDbLine
 10
5.9660049105
 20
7.7597552229
 30
0.0
 11
5.9660049105
 21
7.6947556538
 31
0.0
  0
LINE
  5
C7
330
1F
100
AcDbEntity
  8
0
  6
Continuous
 62
     7
370
    30
100
AcDbLine
 10
5.9938430956
 20
7.6669174687
 30
0.0
 11
7.9374895491
 21
7.6669174687
 31
0.0
  0
LINE
  5
C8
330
1F
100
AcDbEntity
  8
0
  6
Continuous
 62
     7
370
    30
100
AcDbLine
 10
25.9775206557
 20
7.6669174687
 30
0.0
 11
55.60816744
 21
7.6669174687
 31
0.0
  0
LINE
  5
C9
330
1F
100
AcDbEntity
  8
0
  6
Continuous
 62
     7
370
    30
100
AcDbLine
 10
55.60816744
 20
7.6669174687
 30
0.0
 11
55.60816744
 21
7.6269166508
 31
0.0
  0
LINE
  5
CA
330
1F
100
AcDbEntity
  8
0
  6
Continuous
 62
     7
370
    30
100
AcDbLine
 10
5.9938430956
 20
7.6269166508
 30
0.0
 11
7.9374895491
 21
7.6269166508
 31
0.0
  0
LINE
  5
CB
330
1F
100
AcDbEntity
  8
0
  6
Continuous
 62
     7
370
    30
100
AcDbLine
 10
25.9775206557
 20
7.6269166508
 30
0.0
 11
55.60816744
 21
7.6269166508
 31
0.0
  0
LINE
  5
CC
330
1F
100
AcDbEntity
  8
0
  6
Continuous
 62
     7
370
    30
100
AcDbLine
 10
5.9938430956
 20
7.6669174687
 30
0.0
 11
5.9938430956
 21
7.6269166508
 31
0.0
  0
LINE
  5
CD
330
1F
100
AcDbEntity
  8
0
  6
Continuous
 62
     7
370
    30
100
AcDbLine
 10
55.6360056251
 20
7.6947556538
 30
0.0
 11
55.6760040963
 21
7.6947556538
 31
0.0
  0
LINE
  5
CE
330
1F
100
AcDbEntity
  8
0
  6
Continuous
 62
     7
370
    30
100
AcDbLine
 10
55.6760040963
 20
7.6947556538
 30
0.0
 11
55.6760040963
 21
7.7597552229
 31
0.0
  0
LINE
  5
CF
330
1F
100
AcDbEntity
  8
0
  6
Continuous
 62
     7
370
    30
100
AcDbLine
 10
55.6360056251
 20
7.6947556538
 30
0.0
 11
55.6360056251
 21
7.7597552229
 31
0.0
  0
SPLINE
  5
D0
330
1F
100
AcDbEntity
  8
0
  6
Continuous
 62
     7
370
    30
100
AcDbSpline
210
0.0
220
0.0
230
1.0
 70
     8
 71
     3
 72
    11
 73
     7
 74
     0
 42
0.00000001
 43
0.00000001
 40
0.0
 40
0.0
 40
0.0
 40
0.0
 40
0.262360118980454
 40
0.5247319411797733
 40
0.7870539957727549
 40
1.0
 40
1.0
 40
1.0
 40
1.0
 10
5.966004910486038
 20
7.694755653809261
 30
0.0
 10
5.966454791765599
 20
7.694936103265062
 30
0.0
 10
5.967354574392794
 20
7.695297010226059
 30
0.0
 10
5.974305929055884
 20
7.695835652796911
 30
0.0
 10
5.983557277776192
 20
7.696343819724754
 30
0.0
 10
5.990660475626527
 20
7.696669090830696
 30
0.0
 10
5.993843095563616
 20
7.696814830021481
 30
0.0
  0
SPLINE
  5
D1
330
1F
100
AcDbEntity
  8
0
  6
Continuous
 62
     7
370
    30
100
AcDbSpline
210
0.0
220
0.0
230
1.0
 70
     8
 71
     3
 72
    11
 73
     7
 74
     0
 42
0.00000001
 43
0.00000001
 40
0.0
 40
0.0
 40
0.0
 40
0.0
 40
0.2129460042272451
 40
0.4752680588202268
 40
0.737639881019546
 40
1.0
 40
1.0
 40
1.0
 40
1.0
 10
55.60816743998838
 20
7.696814830021481
 30
0.0
 10
55.61135005992547
 20
7.696669090830691
 30
0.0
 10
55.61845325777579
 20
7.696343819724754
 30
0.0
 10
55.62770460649609
 20
7.695835652796916
 30
0.0
 10
55.63465596115918
 20
7.695297010226059
 30
0.0
 10
55.63555574378638
 20
7.694936103265062
 30
0.0
 10
55.63600562506595
 20
7.694755653809261
 30
0.0
  0
SPLINE
  5
D2
330
1F
100
AcDbEntity
  8
0
  6
Continuous
 62
     7
370
    30
100
AcDbSpline
210
0.0
220
0.0
230
1.0
 70
     8
 71
     3
 72
    11
 73
     7
 74
     0
 42
0.00000001
 43
0.00000001
 40
0.0
 40
0.0
 40
0.0
 40
0.0
 40
0.1583834213937383
 40
0.4389156259639562
 40
0.719447830534174
 40
1.0
 40
1.0
 40
1.0
 40
1.0
 10
5.995769686640805
 20
7.691917393263755
 30
0.0
 10
5.995667982089995
 20
7.689713593919477
 30
0.0
 10
5.995386136198637
 20
7.683606376635107
 30
0.0
 10
5.994924784790943
 20
7.675231940009684
 30
0.0
 10
5.994385761411495
 20
7.668263598764113
 30
0.0
 10
5.994023988470529
 20
7.667366189386573
 30
0.0
 10
5.993843095563616
 20
7.666917468731683
 30
0.0
  0
SPLINE
  5
D3
330
1F
100
AcDbEntity
  8
0
  6
Continuous
 62
     7
370
    30
100
AcDbSpline
210
0.0
220
0.0
230
1.0
 70
     8
 71
     3
 72
    11
 73
     7
 74
     0
 42
0.00000001
 43
0.00000001
 40
0.0
 40
0.0
 40
0.0
 40
0.0
 40
0.2805521694658261
 40
0.561084374036044
 40
0.8416165786062619
 40
1.0
 40
1.0
 40
1.0
 40
1.0
 10
55.60816743998837
 20
7.666917468731683
 30
0.0
 10
55.60798654708146
 20
7.667366189386577
 30
0.0
 10
55.60762477414049
 20
7.668263598764113
 30
0.0
 10
55.60708575076104
 20
7.675231940009684
 30
0.0
 10
55.60662439935334
 20
7.683606376635107
 30
0.0
 10
55.60634255346199
 20
7.689713593919477
 30
0.0
 10
55.60624084891118
 20
7.691917393263755
 30
0.0
  0
ARC
  5
D4
330
1F
100
AcDbEntity
  8
0
  6
Continuous
 62
     7
370
    30
100
AcDbCircle
 10
55.207005256
 20
33.1894169109
 30
0.0
 40
0.0939999999999973
100
AcDbArc
 50
20.2272604772
 51
66.7437784392
  0
ARC
  5
D5
330
1F
100
AcDbEntity
  8
0
  6
Continuous
 62
     7
370
    30
100
AcDbCircle
 10
55.207005256
 20
9.1894169109
 30
0.0
 40
0.0939999999999963
100
AcDbArc
 50
20.2272604769
 51
66.7437984751
  0
ARC
  5
D6
330
1F
100
AcDbEntity
  8
0
  6
Continuous
 62
     7
370
    30
100
AcDbCircle
 10
55.207005256
 20
21.1894169109
 30
0.0
 40
0.094000000000009
100
AcDbArc
 50
20.2272604783
 51
66.743794211
  0
LINE
  5
D7
330
1F
100
AcDbEntity
  8
0
  6
Continuous
 62
     7
370
    30
100
AcDbLine
 10
5.9960043506
 20
34.7469173849
 30
0.0
 11
5.9960043506
 21
7.761916478
 31
0.0
  0
LINE
  5
D8
330
1F
100
AcDbEntity
  8
0
  6
Continuous
 62
     7
370
    30
100
AcDbLine
 10
55.606006185
 20
34.7469173849
 30
0.0
 11
5.9960043506
 21
34.7469173849
 31
0.0
  0
LINE
  5
D9
330
1F
100
AcDbEntity
  8
0
  6
Continuous
 62
     7
370
    30
100
AcDbLine
 10
55.606006185
 20
7.761916478
 30
0.0
 11
55.606006185
 21
34.7469173849
 31
0.0
  0
LINE
  5
DA
330
1F
100
AcDbEntity
  8
0
  6
Continuous
 62
     7
370
    30
100
AcDbLine
 10
5.9960043506
 20
7.761916478
 30
0.0
 11
55.606006185
 21
7.761916478
 31
0.0
  0
CIRCLE
  5
DB
330
1F
100
AcDbEntity
  8
0
  6
Continuous
 62
     7
370
    30
100
AcDbCircle
 10
54.551005256
 20
8.2229169109
 30
0.0
 40
0.0940000000000012
  0
CIRCLE
  5
DC
330
1F
100
AcDbEntity
  8
0
  6
Continuous
 62
     7
370
    30
100
AcDbCircle
 10
42.551005256
 20
8.2229169109
 30
0.0
 40
0.0940000000000012
  0
CIRCLE
  5
DD
330
1F
100
AcDbEntity
  8
0
  6
Continuous
 62
     7
370
    30
100
AcDbCircle
 10
19.051005256
 20
8.2229169109
 30
0.0
 40
0.094000000000003
  0
CIRCLE
  5
DE
330
1F
100
AcDbEntity
  8
0
  6
Continuous
 62
     7
370
    30
100
AcDbCircle
 10
7.051005256
 20
34.2859169109
 30
0.0
 40
0.0939999999999941
  0
CIRCLE
  5
DF
330
1F
100
AcDbEntity
  8
0
  6
Continuous
 62
     7
370
    30
100
AcDbCircle
 10
19.051005256
 20
34.2859169109
 30
0.0
 40
0.0940000000000012
  0
CIRCLE
  5
E0
330
1F
100
AcDbEntity
  8
0
  6
Continuous
 62
     7
370
    30
100
AcDbCircle
 10
42.551005256
 20
34.2859169109
 30
0.0
 40
0.0940000000000012
  0
CIRCLE
  5
E1
330
1F
100
AcDbEntity
  8
0
  6
Continuous
 62
     7
370
    30
100
AcDbCircle
 10
54.551005256
 20
34.2859169109
 30
0.0
 40
0.0940000000000012
  0
CIRCLE
  5
E2
330
1F
100
AcDbEntity
  8
0
  6
Continuous
 62
     7
370
    30
100
AcDbCircle
 10
55.207005256
 20
21.2544169109
 30
0.0
 40
0.0940000000000012
  0
CIRCLE
  5
E3
330
1F
100
AcDbEntity
  8
0
  6
Continuous
 62
     7
370
    30
100
AcDbCircle
 10
55.207005256
 20
9.2544169109
 30
0.0
 40
0.0939999999999976
  0
CIRCLE
  5
E4
330
1F
100
AcDbEntity
  8
0
  6
Continuous
 62
     7
370
    30
100
AcDbCircle
 10
55.207005256
 20
33.2544169109
 30
0.0
 40
0.0939999999999941
  0
CIRCLE
  5
E5
330
1F
100
AcDbEntity
  8
0
  6
Continuous
 62
     7
370
    30
100
AcDbCircle
 10
6.395005256
 20
33.2544169109
 30
0.0
 40
0.0940000000000012
  0
CIRCLE
  5
E6
330
1F
100
AcDbEntity
  8
0
  6
Continuous
 62
     7
370
    30
100
AcDbCircle
 10
6.395005256
 20
9.2544169109
 30
0.0
 40
0.0939999999999976
  0
CIRCLE
  5
E7
330
1F
100
AcDbEntity
  8
0
  6
Continuous
 62
     7
370
    30
100
AcDbCircle
 10
6.395005256
 20
21.2544169109
 30
0.0
 40
0.0940000000000012
  0
CIRCLE
  5
E8
330
1F
100
AcDbEntity
  8
0
  6
Continuous
 62
     7
370
    30
100
AcDbCircle
 10
30.801005256
 20
8.2229169109
 30
0.0
 40
0.0940000000000012
  0
CIRCLE
  5
E9
330
1F
100
AcDbEntity
  8
0
  6
Continuous
 62
     7
370
    30
100
AcDbCircle
 10
30.801005256
 20
34.2859169109
 30
0.0
 40
0.0940000000000012
  0
CIRCLE
  5
EA
330
1F
100
AcDbEntity
  8
0
  6
Continuous
 62
     7
370
    30
100
AcDbCircle
 10
7.051005256
 20
8.2229169109
 30
0.0
 40
0.0939999999999976
  0
SPLINE
  5
EB
330
1F
100
AcDbEntity
  8
0
  6
Continuous
 62
     7
370
    30
100
AcDbSpline
210
0.0
220
0.0
230
1.0
 70
     8
 71
     3
 72
    11
 73
     7
 74
     0
 42
0.00000001
 43
0.00000001
 40
0.0
 40
0.0
 40
0.0
 40
0.0
 40
0.2499921617699899
 40
0.5000017239785194
 40
0.7499984198115479
 40
1.0
 40
1.0
 40
1.0
 40
1.0
 10
5.996004350596613
 20
7.761916477961689
 30
0.0
 10
5.986832153411978
 20
7.761736704518841
 30
0.0
 10
5.968487120621671
 20
7.7613771451202
 30
0.0
 10
5.945348210706044
 20
7.760835368243025
 30
0.0
 10
5.929161849890789
 20
7.760296533383161
 30
0.0
 10
5.927056685204464
 20
7.759935660921939
 30
0.0
 10
5.926004092578901
 20
7.759755222928692
 30
0.0
  0
LINE
  5
EC
330
1F
100
AcDbEntity
  8
0
  6
Continuous
 62
     7
370
    30
100
AcDbLine
 10
5.9260040926
 20
7.7597552229
 30
0.0
 11
5.9660049105
 21
7.7597552229
 31
0.0
  0
LINE
  5
ED
330
1F
100
AcDbEntity
  8
0
  6
Continuous
 62
     7
370
    30
100
AcDbLine
 10
5.9260040926
 20
34.74907864
 30
0.0
 11
5.9260040926
 21
7.7597552229
 31
0.0
  0
SPLINE
  5
EE
330
1F
100
AcDbEntity
  8
0
  6
Continuous
 62
     7
370
    30
100
AcDbSpline
210
0.0
220
0.0
230
1.0
 70
     8
 71
     3
 72
    11
 73
     7
 74
     0
 42
0.00000001
 43
0.00000001
 40
0.0
 40
0.0
 40
0.0
 40
0.0
 40
0.250001580188452
 40
0.4999982760214806
 40
0.75000783823001
 40
1.0
 40
1.0
 40
1.0
 40
1.0
 10
5.926004092578901
 20
34.74907863996149
 30
0.0
 10
5.927056685204469
 20
34.74889820196825
 30
0.0
 10
5.929161849890781
 20
34.74853732950702
 30
0.0
 10
5.945348210706048
 20
34.74799849464716
 30
0.0
 10
5.968487120621676
 20
34.74745671776999
 30
0.0
 10
5.986832153411969
 20
34.74709715837135
 30
0.0
 10
5.996004350596609
 20
34.74691738492849
 30
0.0
  0
SPLINE
  5
EF
330
1F
100
AcDbEntity
  8
0
  6
Continuous
 62
     7
370
    30
100
AcDbSpline
210
0.0
220
0.0
230
1.0
 70
     8
 71
     3
 72
    11
 73
     7
 74
     0
 42
0.00000001
 43
0.00000001
 40
0.0
 40
0.0
 40
0.0
 40
0.0
 40
0.2499932088704863
 40
0.5000038182523944
 40
0.7500015612049103
 40
1.0
 40
1.0
 40
1.0
 40
1.0
 10
55.60600618495537
 20
34.74691738492849
 30
0.0
 10
55.61517839600933
 20
34.74709715831732
 30
0.0
 10
55.63352345653922
 20
34.74745671760791
 30
0.0
 10
55.6566621584003
 20
34.74799849529548
 30
0.0
 10
55.67284921940096
 20
34.74853732406675
 30
0.0
 10
55.67495246971365
 20
34.7488982011625
 30
0.0
 10
55.67600409633354
 20
34.7490786399615
 30
0.0
  0
LINE
  5
F0
330
1F
100
AcDbEntity
  8
0
  6
Continuous
 62
     7
370
    30
100
AcDbLine
 10
55.6760040963
 20
34.74907864
 30
0.0
 11
55.6360056251
 21
34.74907864
 31
0.0
  0
SPLINE
  5
F1
330
1F
100
AcDbEntity
  8
0
  6
Continuous
 62
     7
370
    30
100
AcDbSpline
210
0.0
220
0.0
230
1.0
 70
     8
 71
     3
 72
    11
 73
     7
 74
     0
 42
0.00000001
 43
0.00000001
 40
0.0
 40
0.0
 40
0.0
 40
0.0
 40
0.2499934257459745
 40
0.4999951132583063
 40
0.7499990374386675
 40
1.0
 40
1.0
 40
1.0
 40
1.0
 10
5.996004350596609
 20
34.74691738492849
 30
0.0
 10
5.99582445409183
 20
34.75608965966735
 30
0.0
 10
5.995464655137052
 20
34.77443451226981
 30
0.0
 10
5.994924726609356
 20
34.79757224091048
 30
0.0
 10
5.994385801744503
 20
34.81376040436162
 30
0.0
 10
5.994023996909566
 20
34.81586445202571
 30
0.0
 10
5.993843095563616
 20
34.81691646962643
 30
0.0
  0
LINE
  5
F2
330
1F
100
AcDbEntity
  8
0
  6
Continuous
 62
     7
370
    30
100
AcDbLine
 10
5.9938430956
 20
34.8169164696
 30
0.0
 11
5.9938430956
 21
34.776916825
 31
0.0
  0
SPLINE
  5
F3
330
1F
100
AcDbEntity
  8
0
  6
Continuous
 62
     7
370
    30
100
AcDbSpline
210
0.0
220
0.0
230
1.0
 70
     8
 71
     3
 72
    11
 73
     7
 74
     0
 42
0.00000001
 43
0.00000001
 40
0.0
 40
0.0
 40
0.0
 40
0.0
 40
0.2500009625613325
 40
0.5000048867416939
 40
0.7500065742540255
 40
1.0
 40
1.0
 40
1.0
 40
1.0
 10
55.60816743998837
 20
34.81691646962643
 30
0.0
 10
55.60798653864241
 20
34.81586445202571
 30
0.0
 10
55.60762473380748
 20
34.81376040436162
 30
0.0
 10
55.60708580894264
 20
34.79757224091048
 30
0.0
 10
55.60654588041493
 20
34.77443451226981
 30
0.0
 10
55.60618608146016
 20
34.75608965966735
 30
0.0
 10
55.60600618495537
 20
34.74691738492849
 30
0.0
  0
LINE
  5
F4
330
1F
100
AcDbEntity
  8
0
  6
Continuous
 62
     7
370
    30
100
AcDbLine
 10
55.60816744
 20
34.8169164696
 30
0.0
 11
55.60816744
 21
34.776916825
 31
0.0
  0
LINE
  5
F5
330
1F
100
AcDbEntity
  8
0
  6
Continuous
 62
     7
370
    30
100
AcDbLine
 10
5.9260040926
 20
34.74907864
 30
0.0
 11
5.9660049105
 21
34.74907864
 31
0.0
  0
LINE
  5
F6
330
1F
100
AcDbEntity
  8
0
  6
Continuous
 62
     7
370
    30
100
AcDbLine
 10
5.9938430956
 20
34.8169164696
 30
0.0
 11
55.60816744
 21
34.8169164696
 31
0.0
  0
LINE
  5
F7
330
1F
100
AcDbEntity
  8
0
  6
Continuous
 62
     7
370
    30
100
AcDbLine
 10
55.6760040963
 20
7.7597552229
 30
0.0
 11
55.6760040963
 21
34.74907864
 31
0.0
  0
SPLINE
  5
F8
330
1F
100
AcDbEntity
  8
0
  6
Continuous
 62
     7
370
    30
100
AcDbSpline
210
0.0
220
0.0
230
1.0
 70
     8
 71
     3
 72
    11
 73
     7
 74
     0
 42
0.00000001
 43
0.00000001
 40
0.0
 40
0.0
 40
0.0
 40
0.0
 40
0.2499984387950897
 40
0.4999961817476056
 40
0.7500067911295137
 40
1.0
 40
1.0
 40
1.0
 40
1.0
 10
55.67600409633353
 20
7.759755222928692
 30
0.0
 10
55.67495246971363
 20
7.759935661727686
 30
0.0
 10
55.67284921940094
 20
7.760296538823438
 30
0.0
 10
55.6566621584003
 20
7.760835367594694
 30
0.0
 10
55.63352345653922
 20
7.761377145282271
 30
0.0
 10
55.61517839600933
 20
7.761736704572862
 30
0.0
 10
55.60600618495537
 20
7.761916477961689
 30
0.0
  0
SPLINE
  5
F9
330
1F
100
AcDbEntity
  8
0
  6
Continuous
 62
     7
370
    30
100
AcDbSpline
210
0.0
220
0.0
230
1.0
 70
     8
 71
     3
 72
    11
 73
     7
 74
     0
 42
0.00000001
 43
0.00000001
 40
0.0
 40
0.0
 40
0.0
 40
0.0
 40
0.2500009625613325
 40
0.5000048867416939
 40
0.7500065742540255
 40
1.0
 40
1.0
 40
1.0
 40
1.0
 10
5.993843095563616
 20
7.691917393263755
 30
0.0
 10
5.99402399690957
 20
7.692969410864475
 30
0.0
 10
5.994385801744508
 20
7.695073458528564
 30
0.0
 10
5.99492472660936
 20
7.711261621979702
 30
0.0
 10
5.995464655137044
 20
7.73439935062037
 30
0.0
 10
5.99582445409183
 20
7.75274420322283
 30
0.0
 10
5.996004350596613
 20
7.761916477961689
 30
0.0
  0
LINE
  5
FA
330
1F
100
AcDbEntity
  8
0
  6
Continuous
 62
     7
370
    30
100
AcDbLine
 10
5.9938430956
 20
7.6919173933
 30
0.0
 11
5.9938430956
 21
7.7319170379
 31
0.0
  0
SPLINE
  5
FB
330
1F
100
AcDbEntity
  8
0
  6
Continuous
 62
     7
370
    30
100
AcDbSpline
210
0.0
220
0.0
230
1.0
 70
     8
 71
     3
 72
    11
 73
     7
 74
     0
 42
0.00000001
 43
0.00000001
 40
0.0
 40
0.0
 40
0.0
 40
0.0
 40
0.2499934257459745
 40
0.4999951132583063
 40
0.7499990374386675
 40
1.0
 40
1.0
 40
1.0
 40
1.0
 10
55.60600618495538
 20
7.761916477961689
 30
0.0
 10
55.60618608146016
 20
7.75274420322283
 30
0.0
 10
55.60654588041493
 20
7.734399350620374
 30
0.0
 10
55.60708580894262
 20
7.711261621979702
 30
0.0
 10
55.60762473380748
 20
7.695073458528564
 30
0.0
 10
55.60798653864241
 20
7.692969410864475
 30
0.0
 10
55.60816743998837
 20
7.691917393263755
 30
0.0
  0
LINE
  5
FC
330
1F
100
AcDbEntity
  8
0
  6
Continuous
 62
     7
370
    30
100
AcDbLine
 10
5.9938430956
 20
7.6919173933
 30
0.0
 11
55.60816744
 21
7.6919173933
 31
0.0
  0
LINE
  5
FD
330
1F
100
AcDbEntity
  8
0
  6
Continuous
 62
     7
370
    30
100
AcDbLine
 10
55.60816744
 20
7.6919173933
 30
0.0
 11
55.60816744
 21
7.7319170379
 31
0.0
  0
LINE
  5
FE
330
1F
100
AcDbEntity
  8
0
  6
Continuous
 62
     7
370
    30
100
AcDbLine
 10
55.6760040963
 20
7.7597552229
 30
0.0
 11
55.6360056251
 21
7.7597552229
 31
0.0
  0
LINE
  5
FF
330
1F
100
AcDbEntity
  8
0
  6
Continuous
 62
     7
370
    30
100
AcDbLine
 10
55.6750044279
 20
15.9819167732
 30
0.0
 11
55.640342215
 21
15.9819167732
 31
0.0
  0
LINE
  5
100
330
1F
100
AcDbEntity
  8
0
  6
Continuous
 62
     7
370
    30
100
AcDbLine
 10
55.640342215
 20
26.4819167563
 30
0.0
 11
55.6750044279
 21
26.4819167563
 31
0.0
  0
LINE
  5
101
330
1F
100
AcDbEntity
  8
0
  6
Continuous
 62
     7
370
    30
100
AcDbLine
 10
55.6750044279
 20
15.9819167732
 30
0.0
 11
55.6750044279
 21
26.4819167563
 31
0.0
  0
LINE
  5
102
330
1F
100
AcDbEntity
  8
0
  6
Continuous
 62
     7
370
    30
100
AcDbLine
 10
55.7040041995
 20
16.7319168558
 30
0.0
 11
55.7040041995
 21
25.7319166737
 31
0.0
  0
LINE
  5
103
330
1F
100
AcDbEntity
  8
0
  6
Continuous
 62
     7
370
    30
100
AcDbLine
 10
55.7040041995
 20
16.7319168558
 30
0.0
 11
55.6760040963
 21
16.7319168558
 31
0.0
  0
LINE
  5
104
330
1F
100
AcDbEntity
  8
0
  6
Continuous
 62
     7
370
    30
100
AcDbLine
 10
55.7040041995
 20
25.7319166737
 30
0.0
 11
55.6760040963
 21
25.7319166737
 31
0.0
  0
LINE
  5
105
330
1F
100
AcDbEntity
  8
0
  6
Continuous
 62
     7
370
    30
100
AcDbLine
 10
59.6360052834
 20
16.7319168558
 30
0.0
 11
60.2450051815
 21
17.3409169005
 31
0.0
  0
LINE
  5
106
330
1F
100
AcDbEntity
  8
0
  6
Continuous
 62
     7
370
    30
100
AcDbLine
 10
59.6360052834
 20
16.7319168558
 30
0.0
 11
55.7040041995
 21
16.7319168558
 31
0.0
  0
LINE
  5
107
330
1F
100
AcDbEntity
  8
0
  6
Continuous
 62
     7
370
    30
100
AcDbLine
 10
59.6360052834
 20
25.7319166737
 30
0.0
 11
55.7040041995
 21
25.7319166737
 31
0.0
  0
LINE
  5
108
330
1F
100
AcDbEntity
  8
0
  6
Continuous
 62
     7
370
    30
100
AcDbLine
 10
60.2450051815
 20
25.1229167755
 30
0.0
 11
59.6360052834
 21
25.7319166737
 31
0.0
  0
LINE
  5
109
330
1F
100
AcDbEntity
  8
0
  6
Continuous
 62
     7
370
    30
100
AcDbLine
 10
60.2450051815
 20
17.3409169005
 30
0.0
 11
60.2450051815
 21
25.1229167755
 31
0.0
  0
CIRCLE
  5
10A
330
1F
100
AcDbEntity
  8
0
  6
Continuous
 62
     7
370
    30
100
AcDbCircle
 10
56.120005256
 20
17.0759169109
 30
0.0
 40
0.09375
  0
CIRCLE
  5
10B
330
1F
100
AcDbEntity
  8
0
  6
Continuous
 62
     7
370
    30
100
AcDbCircle
 10
57.574005256
 20
19.7319169109
 30
0.0
 40
0.09375
  0
CIRCLE
  5
10C
330
1F
100
AcDbEntity
  8
0
  6
Continuous
 62
     7
370
    30
100
AcDbCircle
 10
58.495005256
 20
17.0759169109
 30
0.0
 40
0.09375
  0
CIRCLE
  5
10D
330
1F
100
AcDbEntity
  8
0
  6
Continuous
 62
     7
370
    30
100
AcDbCircle
 10
58.495005256
 20
25.3879169109
 30
0.0
 40
0.09375
  0
CIRCLE
  5
10E
330
1F
100
AcDbEntity
  8
0
  6
Continuous
 62
     7
370
    30
100
AcDbCircle
 10
57.574005256
 20
22.7319169109
 30
0.0
 40
0.09375
  0
CIRCLE
  5
10F
330
1F
100
AcDbEntity
  8
0
  6
Continuous
 62
     7
370
    30
100
AcDbCircle
 10
56.120005256
 20
25.3879169109
 30
0.0
 40
0.09375
  0
LINE
  5
110
330
1F
100
AcDbEntity
  8
0
  6
Continuous
 62
     7
370
    30
100
AcDbLine
 10
25.9425206734
 20
41.0164319456
 30
0.0
 11
25.9775206557
 21
41.0164319456
 31
0.0
  0
LINE
  5
111
330
1F
100
AcDbEntity
  8
0
  6
Continuous
 62
     7
370
    30
100
AcDbLine
 10
25.9775206557
 20
41.0164319456
 30
0.0
 11
25.9775206557
 21
34.8169164696
 31
0.0
  0
ARC
  5
112
330
1F
100
AcDbEntity
  8
0
  6
Continuous
 62
     7
370
    30
100
AcDbCircle
 10
13.957505256
 20
37.9229322672
 30
0.0
 40
0.4375000000000033
100
AcDbArc
 50
278.2793756981
 51
81.7206243019
  0
LINE
  5
113
330
1F
100
AcDbEntity
  8
0
  6
Continuous
 62
     7
370
    30
100
AcDbLine
 10
14.0205049309
 20
38.2928727951
 30
0.0
 11
14.0205049309
 21
38.3558730273
 31
0.0
  0
LINE
  5
114
330
1F
100
AcDbEntity
  8
0
  6
Continuous
 62
     7
370
    30
100
AcDbLine
 10
13.8945056398
 20
38.2928727951
 30
0.0
 11
14.0205049309
 21
38.2928727951
 31
0.0
  0
LINE
  5
115
330
1F
100
AcDbEntity
  8
0
  6
Continuous
 62
     7
370
    30
100
AcDbLine
 10
13.8945056398
 20
38.3558730273
 30
0.0
 11
13.8945056398
 21
38.2928727951
 31
0.0
  0
ARC
  5
116
330
1F
100
AcDbEntity
  8
0
  6
Continuous
 62
     7
370
    30
100
AcDbCircle
 10
13.957505256
 20
37.9229322672
 30
0.0
 40
0.4375000000000031
100
AcDbArc
 50
98.2793756981
 51
261.7206243019
  0
LINE
  5
117
330
1F
100
AcDbEntity
  8
0
  6
Continuous
 62
     7
370
    30
100
AcDbLine
 10
13.8945056398
 20
37.5527203854
 30
0.0
 11
13.8945056398
 21
37.4899923634
 31
0.0
  0
LINE
  5
118
330
1F
100
AcDbEntity
  8
0
  6
Continuous
 62
     7
370
    30
100
AcDbLine
 10
14.0205049309
 20
37.5529925956
 30
0.0
 11
13.8945056398
 21
37.5527203854
 31
0.0
  0
LINE
  5
119
330
1F
100
AcDbEntity
  8
0
  6
Continuous
 62
     7
370
    30
100
AcDbLine
 10
14.0205049309
 20
37.4899923634
 30
0.0
 11
14.0205049309
 21
37.5529925956
 31
0.0
  0
ARC
  5
11A
330
1F
100
AcDbEntity
  8
0
  6
Continuous
 62
     7
370
    30
100
AcDbCircle
 10
19.957505256
 20
37.9229322672
 30
0.0
 40
0.4375000000000036
100
AcDbArc
 50
278.2793756981
 51
81.7206243019
  0
LINE
  5
11B
330
1F
100
AcDbEntity
  8
0
  6
Continuous
 62
     7
370
    30
100
AcDbLine
 10
20.020505005
 20
38.2928727951
 30
0.0
 11
20.020505005
 21
38.3558730273
 31
0.0
  0
LINE
  5
11C
330
1F
100
AcDbEntity
  8
0
  6
Continuous
 62
     7
370
    30
100
AcDbLine
 10
19.8945051273
 20
38.2928727951
 30
0.0
 11
20.020505005
 21
38.2928727951
 31
0.0
  0
LINE
  5
11D
330
1F
100
AcDbEntity
  8
0
  6
Continuous
 62
     7
370
    30
100
AcDbLine
 10
19.8945051273
 20
38.3558730273
 30
0.0
 11
19.8945051273
 21
38.2928727951
 31
0.0
  0
ARC
  5
11E
330
1F
100
AcDbEntity
  8
0
  6
Continuous
 62
     7
370
    30
100
AcDbCircle
 10
19.957505256
 20
37.9229322672
 30
0.0
 40
0.4375000000000031
100
AcDbArc
 50
98.2793756981
 51
261.7206243019
  0
LINE
  5
11F
330
1F
100
AcDbEntity
  8
0
  6
Continuous
 62
     7
370
    30
100
AcDbLine
 10
19.8945051273
 20
37.5527203854
 30
0.0
 11
19.8945051273
 21
37.4899923634
 31
0.0
  0
LINE
  5
120
330
1F
100
AcDbEntity
  8
0
  6
Continuous
 62
     7
370
    30
100
AcDbLine
 10
20.020505005
 20
37.5529925956
 30
0.0
 11
19.8945051273
 21
37.5527203854
 31
0.0
  0
LINE
  5
121
330
1F
100
AcDbEntity
  8
0
  6
Continuous
 62
     7
370
    30
100
AcDbLine
 10
20.020505005
 20
37.4899923634
 30
0.0
 11
20.020505005
 21
37.5529925956
 31
0.0
  0
LINE
  5
122
330
1F
100
AcDbEntity
  8
0
  6
Continuous
 62
     7
370
    30
100
AcDbLine
 10
8.039521437
 20
41.0164319456
 30
0.0
 11
7.9724896781
 21
41.0164319456
 31
0.0
  0
LINE
  5
123
330
1F
100
AcDbEntity
  8
0
  6
Continuous
 62
     7
370
    30
100
AcDbLine
 10
25.8525205931
 20
41.0164319456
 30
0.0
 11
25.9425206734
 21
41.0164319456
 31
0.0
  0
LINE
  5
124
330
1F
100
AcDbEntity
  8
0
  6
Continuous
 62
     7
370
    30
100
AcDbLine
 10
7.9374895491
 20
34.8169164696
 30
0.0
 11
7.9374895491
 21
41.0164319456
 31
0.0
  0
LINE
  5
125
330
1F
100
AcDbEntity
  8
0
  6
Continuous
 62
     7
370
    30
100
AcDbLine
 10
7.9724896781
 20
41.0164319456
 30
0.0
 11
7.9374895491
 21
41.0164319456
 31
0.0
  0
LINE
  5
126
330
1F
100
AcDbEntity
  8
0
  6
Continuous
 62
     7
370
    30
100
AcDbLine
 10
13.8945056398
 20
37.5527203854
 30
0.0
 11
13.8945056398
 21
37.5529925956
 31
0.0
  0
LINE
  5
127
330
1F
100
AcDbEntity
  8
0
  6
Continuous
 62
     7
370
    30
100
AcDbLine
 10
13.8945056398
 20
37.5529925956
 30
0.0
 11
14.0204368783
 21
37.5529925956
 31
0.0
  0
LINE
  5
128
330
1F
100
AcDbEntity
  8
0
  6
Continuous
 62
     7
370
    30
100
AcDbLine
 10
19.8945051273
 20
37.5527203854
 30
0.0
 11
19.8945051273
 21
37.5529925956
 31
0.0
  0
LINE
  5
129
330
1F
100
AcDbEntity
  8
0
  6
Continuous
 62
     7
370
    30
100
AcDbLine
 10
19.8945051273
 20
37.5529925956
 30
0.0
 11
20.0204375391
 21
37.5529925956
 31
0.0
  0
ARC
  5
12A
330
1F
100
AcDbEntity
  8
0
  6
Continuous
 62
     7
370
    30
100
AcDbCircle
 10
19.957505256
 20
4.5409015546
 30
0.0
 40
0.4375000000000037
100
AcDbArc
 50
278.2793756981
 51
81.7206243019
  0
LINE
  5
12B
330
1F
100
AcDbEntity
  8
0
  6
Continuous
 62
     7
370
    30
100
AcDbLine
 10
20.020505005
 20
4.9108421071
 30
0.0
 11
20.020505005
 21
4.9738423394
 31
0.0
  0
LINE
  5
12C
330
1F
100
AcDbEntity
  8
0
  6
Continuous
 62
     7
370
    30
100
AcDbLine
 10
19.8945051273
 20
4.9108421071
 30
0.0
 11
20.020505005
 21
4.9108421071
 31
0.0
  0
LINE
  5
12D
330
1F
100
AcDbEntity
  8
0
  6
Continuous
 62
     7
370
    30
100
AcDbLine
 10
19.8945051273
 20
4.9738423394
 30
0.0
 11
19.8945051273
 21
4.9108421071
 31
0.0
  0
ARC
  5
12E
330
1F
100
AcDbEntity
  8
0
  6
Continuous
 62
     7
370
    30
100
AcDbCircle
 10
19.957505256
 20
4.5409015546
 30
0.0
 40
0.4375000000000017
100
AcDbArc
 50
98.2793756981
 51
261.7206243019
  0
LINE
  5
12F
330
1F
100
AcDbEntity
  8
0
  6
Continuous
 62
     7
370
    30
100
AcDbLine
 10
19.8945051273
 20
4.1706896975
 30
0.0
 11
19.8945051273
 21
4.1079616754
 31
0.0
  0
LINE
  5
130
330
1F
100
AcDbEntity
  8
0
  6
Continuous
 62
     7
370
    30
100
AcDbLine
 10
20.020505005
 20
4.1709619076
 30
0.0
 11
19.8945051273
 21
4.1706896975
 31
0.0
  0
LINE
  5
131
330
1F
100
AcDbEntity
  8
0
  6
Continuous
 62
     7
370
    30
100
AcDbLine
 10
20.020505005
 20
4.1079616754
 30
0.0
 11
20.020505005
 21
4.1709619076
 31
0.0
  0
ARC
  5
132
330
1F
100
AcDbEntity
  8
0
  6
Continuous
 62
     7
370
    30
100
AcDbCircle
 10
13.957505256
 20
4.5409015546
 30
0.0
 40
0.4375000000000024
100
AcDbArc
 50
278.2793756981
 51
81.7206243019
  0
LINE
  5
133
330
1F
100
AcDbEntity
  8
0
  6
Continuous
 62
     7
370
    30
100
AcDbLine
 10
14.0205049309
 20
4.9108421071
 30
0.0
 11
14.0205049309
 21
4.9738423394
 31
0.0
  0
LINE
  5
134
330
1F
100
AcDbEntity
  8
0
  6
Continuous
 62
     7
370
    30
100
AcDbLine
 10
13.8945056398
 20
4.9108421071
 30
0.0
 11
14.0205049309
 21
4.9108421071
 31
0.0
  0
LINE
  5
135
330
1F
100
AcDbEntity
  8
0
  6
Continuous
 62
     7
370
    30
100
AcDbLine
 10
13.8945056398
 20
4.9738423394
 30
0.0
 11
13.8945056398
 21
4.9108421071
 31
0.0
  0
ARC
  5
136
330
1F
100
AcDbEntity
  8
0
  6
Continuous
 62
     7
370
    30
100
AcDbCircle
 10
13.957505256
 20
4.5409015546
 30
0.0
 40
0.4375000000000022
100
AcDbArc
 50
98.2793756981
 51
261.7206243019
  0
LINE
  5
137
330
1F
100
AcDbEntity
  8
0
  6
Continuous
 62
     7
370
    30
100
AcDbLine
 10
13.8945056398
 20
4.1706896975
 30
0.0
 11
13.8945056398
 21
4.1079616754
 31
0.0
  0
LINE
  5
138
330
1F
100
AcDbEntity
  8
0
  6
Continuous
 62
     7
370
    30
100
AcDbLine
 10
14.0205049309
 20
4.1709619076
 30
0.0
 11
13.8945056398
 21
4.1706896975
 31
0.0
  0
LINE
  5
139
330
1F
100
AcDbEntity
  8
0
  6
Continuous
 62
     7
370
    30
100
AcDbLine
 10
14.0205049309
 20
4.1079616754
 30
0.0
 11
14.0205049309
 21
4.1709619076
 31
0.0
  0
LINE
  5
13A
330
1F
100
AcDbEntity
  8
0
  6
Continuous
 62
     7
370
    30
100
AcDbLine
 10
25.8525205931
 20
1.4474015838
 30
0.0
 11
25.9425206734
 21
1.4474015838
 31
0.0
  0
LINE
  5
13B
330
1F
100
AcDbEntity
  8
0
  6
Continuous
 62
     7
370
    30
100
AcDbLine
 10
8.039521437
 20
1.4474015838
 30
0.0
 11
7.9724896781
 21
1.4474015838
 31
0.0
  0
LINE
  5
13C
330
1F
100
AcDbEntity
  8
0
  6
Continuous
 62
     7
370
    30
100
AcDbLine
 10
25.9775206557
 20
7.6919173933
 30
0.0
 11
25.9775206557
 21
1.4474015838
 31
0.0
  0
LINE
  5
13D
330
1F
100
AcDbEntity
  8
0
  6
Continuous
 62
     7
370
    30
100
AcDbLine
 10
25.9425206734
 20
1.4474015838
 30
0.0
 11
25.9775206557
 21
1.4474015838
 31
0.0
  0
LINE
  5
13E
330
1F
100
AcDbEntity
  8
0
  6
Continuous
 62
     7
370
    30
100
AcDbLine
 10
7.9724896781
 20
1.4474015838
 30
0.0
 11
7.9374895491
 21
1.4474015838
 31
0.0
  0
LINE
  5
13F
330
1F
100
AcDbEntity
  8
0
  6
Continuous
 62
     7
370
    30
100
AcDbLine
 10
7.9374895491
 20
1.4474015838
 30
0.0
 11
7.9374895491
 21
7.6919173933
 31
0.0
  0
LINE
  5
140
330
1F
100
AcDbEntity
  8
0
  6
Continuous
 62
     7
370
    30
100
AcDbLine
 10
13.8945056398
 20
4.1706896975
 30
0.0
 11
13.8945056398
 21
4.1709607343
 31
0.0
  0
LINE
  5
141
330
1F
100
AcDbEntity
  8
0
  6
Continuous
 62
     7
370
    30
100
AcDbLine
 10
13.8945056398
 20
4.1709607343
 30
0.0
 11
14.0204368783
 21
4.1709607343
 31
0.0
  0
LINE
  5
142
330
1F
100
AcDbEntity
  8
0
  6
Continuous
 62
     7
370
    30
100
AcDbLine
 10
19.8945051273
 20
4.1706896975
 30
0.0
 11
19.8945051273
 21
4.1709607343
 31
0.0
  0
LINE
  5
143
330
1F
100
AcDbEntity
  8
0
  6
Continuous
 62
     7
370
    30
100
AcDbLine
 10
19.8945051273
 20
4.1709607343
 30
0.0
 11
20.0204375391
 21
4.1709607343
 31
0.0
  0
LINE
  5
144
330
1F
100
AcDbEntity
  8
0
  6
Continuous
 62
     7
370
    30
100
AcDbLine
 10
8.039521437
 20
1.6938867364
 30
0.0
 11
8.039521437
 21
1.2928859288
 31
0.0
  0
LINE
  5
145
330
1F
100
AcDbEntity
  8
0
  6
Continuous
 62
     7
370
    30
100
AcDbLine
 10
8.039521437
 20
1.6938867364
 30
0.0
 11
25.8525205931
 21
1.6938867364
 31
0.0
  0
LINE
  5
146
330
1F
100
AcDbEntity
  8
0
  6
Continuous
 62
     7
370
    30
100
AcDbLine
 10
25.8525205931
 20
1.6938867364
 30
0.0
 11
25.8525205931
 21
1.2928859288
 31
0.0
  0
LINE
  5
147
330
1F
100
AcDbEntity
  8
0
  6
Continuous
 62
     7
370
    30
100
AcDbLine
 10
25.8525205931
 20
1.2928859288
 30
0.0
 11
8.039521437
 21
1.2928859288
 31
0.0
  0
LINE
  5
148
330
1F
100
AcDbEntity
  8
0
  6
Continuous
 62
     7
370
    30
100
AcDbLine
 10
8.039521437
 20
1.2928859288
 30
0.0
 11
8.039521437
 21
1.2558864628
 31
0.0
  0
LINE
  5
149
330
1F
100
AcDbEntity
  8
0
  6
Continuous
 62
     7
370
    30
100
AcDbLine
 10
25.8525205931
 20
1.2558864628
 30
0.0
 11
25.8525205931
 21
1.2928859288
 31
0.0
  0
LINE
  5
14A
330
1F
100
AcDbEntity
  8
0
  6
Continuous
 62
     7
370
    30
100
AcDbLine
 10
25.8525205931
 20
1.2558864628
 30
0.0
 11
8.039521437
 21
1.2558864628
 31
0.0
  0
LINE
  5
14B
330
1F
100
AcDbEntity
  8
0
  6
Continuous
 62
     7
370
    30
100
AcDbLine
 10
25.8525205931
 20
41.170948774
 30
0.0
 11
25.8525205931
 21
40.7699479664
 31
0.0
  0
LINE
  5
14C
330
1F
100
AcDbEntity
  8
0
  6
Continuous
 62
     7
370
    30
100
AcDbLine
 10
8.039521437
 20
40.7699479664
 30
0.0
 11
25.8525205931
 21
40.7699479664
 31
0.0
  0
LINE
  5
14D
330
1F
100
AcDbEntity
  8
0
  6
Continuous
 62
     7
370
    30
100
AcDbLine
 10
8.039521437
 20
40.7699479664
 30
0.0
 11
8.039521437
 21
41.170948774
 31
0.0
  0
LINE
  5
14E
330
1F
100
AcDbEntity
  8
0
  6
Continuous
 62
     7
370
    30
100
AcDbLine
 10
8.039521437
 20
41.170948774
 30
0.0
 11
25.8525205931
 21
41.170948774
 31
0.0
  0
LINE
  5
14F
330
1F
100
AcDbEntity
  8
0
  6
Continuous
 62
     7
370
    30
100
AcDbLine
 10
25.8525205931
 20
41.170948774
 30
0.0
 11
25.8525205931
 21
41.2079482399
 31
0.0
  0
LINE
  5
150
330
1F
100
AcDbEntity
  8
0
  6
Continuous
 62
     7
370
    30
100
AcDbLine
 10
8.039521437
 20
41.2079482399
 30
0.0
 11
8.039521437
 21
41.170948774
 31
0.0
  0
LINE
  5
151
330
1F
100
AcDbEntity
  8
0
  6
Continuous
 62
     7
370
    30
100
AcDbLine
 10
8.039521437
 20
41.2079482399
 30
0.0
 11
25.8525205931
 21
41.2079482399
 31
0.0
  0
LINE
  5
152
330
1F
100
AcDbEntity
  8
0
  6
Continuous
 62
     7
370
    30
100
AcDbLine
 10
8.039521437
 20
1.3509171517
 30
0.0
 11
8.0305197277
 21
1.3509171517
 31
0.0
  0
LINE
  5
153
330
1F
100
AcDbEntity
  8
0
  6
Continuous
 62
     7
370
    30
100
AcDbLine
 10
8.0305197277
 20
1.3509171517
 30
0.0
 11
8.0305197277
 21
1.4474015838
 31
0.0
  0
SPLINE
  5
154
330
1F
100
AcDbEntity
  8
0
  6
Continuous
 62
     7
370
    30
100
AcDbSpline
210
0.0
220
0.0
230
1.0
 70
     8
 71
     3
 72
     9
 73
     5
 74
     0
 42
0.00000001
 43
0.00000001
 40
0.0
 40
0.0
 40
0.0
 40
0.0
 40
0.4550798443159753
 40
1.0
 40
1.0
 40
1.0
 40
1.0
 10
8.039521437046185
 20
1.329040604426052
 30
0.0
 10
8.037097758407974
 20
1.332072397936757
 30
0.0
 10
8.03177192675781
 20
1.3387345112968
 30
0.0
 10
8.030961400044285
 20
1.347267191003743
 30
0.0
 10
8.030519727701366
 20
1.351916820158056
 30
0.0
  0
LINE
  5
155
330
1F
100
AcDbEntity
  8
0
  6
Continuous
 62
     7
370
    30
100
AcDbLine
 10
8.0305197277
 20
41.1129163777
 30
0.0
 11
8.0305197277
 21
41.0164319456
 31
0.0
  0
LINE
  5
156
330
1F
100
AcDbEntity
  8
0
  6
Continuous
 62
     7
370
    30
100
AcDbLine
 10
8.039521437
 20
41.1129163777
 30
0.0
 11
8.0305197277
 21
41.1129163777
 31
0.0
  0
SPLINE
  5
157
330
1F
100
AcDbEntity
  8
0
  6
Continuous
 62
     7
370
    30
100
AcDbSpline
210
0.0
220
0.0
230
1.0
 70
     8
 71
     3
 72
     9
 73
     5
 74
     0
 42
0.00000001
 43
0.00000001
 40
0.0
 40
0.0
 40
0.0
 40
0.0
 40
0.5449410977200475
 40
1.0
 40
1.0
 40
1.0
 40
1.0
 10
8.03051972770136
 20
41.11191670924649
 30
0.0
 10
8.03096132467527
 20
41.11656675609208
 30
0.0
 10
8.03177168193361
 20
41.12509987437782
 30
0.0
 10
8.037097758493417
 20
41.13176230151755
 30
0.0
 10
8.039521437046185
 20
41.13479409829826
 30
0.0
  0
LINE
  5
158
330
1F
100
AcDbEntity
  8
0
  6
Continuous
 62
     7
370
    30
100
AcDbLine
 10
5.8540044977
 20
9.8574169106
 30
0.0
 11
5.8540044977
 21
19.7324168737
 31
0.0
  0
SPLINE
  5
159
330
1F
100
AcDbEntity
  8
0
  6
Continuous
 62
     7
370
    30
100
AcDbSpline
210
0.0
220
0.0
230
1.0
 70
     8
 71
     3
 72
    11
 73
     7
 74
     0
 42
0.00000001
 43
0.00000001
 40
0.0
 40
0.0
 40
0.0
 40
0.0
 40
0.1502739603239636
 40
0.4489766994291279
 40
0.7476753241287419
 40
1.0
 40
1.0
 40
1.0
 40
1.0
 10
5.854004497657699
 20
19.73241687371964
 30
0.0
 10
5.854360422922965
 20
19.73946578265313
 30
0.0
 10
5.855423828389203
 20
19.76052595742136
 30
0.0
 10
5.867833252425299
 20
19.79401079802403
 30
0.0
 10
5.892550042371949
 20
19.82663388405695
 30
0.0
 10
5.91549646372741
 20
19.83895674250805
 30
0.0
 10
5.926004092578901
 20
19.84459962777489
 30
0.0
  0
SPLINE
  5
15A
330
1F
100
AcDbEntity
  8
0
  6
Continuous
 62
     7
370
    30
100
AcDbSpline
210
0.0
220
0.0
230
1.0
 70
     8
 71
     3
 72
    12
 73
     8
 74
     0
 42
0.00000001
 43
0.00000001
 40
0.0
 40
0.0
 40
0.0
 40
0.0
 40
0.0660105285622815
 40
0.3647939209654321
 40
0.6635755464876073
 40
0.9623631150737737
 40
1.0
 40
1.0
 40
1.0
 40
1.0
 10
5.926004092578901
 20
19.84427744149681
 30
0.0
 10
5.92306203427526
 20
19.84330005400909
 30
0.0
 10
5.90680334028097
 20
19.83789871846892
 30
0.0
 10
5.883250587755061
 20
19.81543423803956
 30
0.0
 10
5.860644776118633
 20
19.77985115675934
 30
0.0
 10
5.854246155795158
 20
19.7499237219178
 30
0.0
 10
5.854028812545597
 20
19.73417835816977
 30
0.0
 10
5.854004497657699
 20
19.73241687371964
 30
0.0
  0
LINE
  5
15B
330
1F
100
AcDbEntity
  8
0
  6
Continuous
 62
     7
370
    30
100
AcDbLine
 10
2.6980042627
 20
19.7324168737
 30
0.0
 11
5.8540044977
 21
19.7324168737
 31
0.0
  0
SPLINE
  5
15C
330
1F
100
AcDbEntity
  8
0
  6
Continuous
 62
     7
370
    30
100
AcDbSpline
210
0.0
220
0.0
230
1.0
 70
    11
 71
     3
 72
    26
 73
    22
 74
     0
 42
0.00000001
 43
0.00000001
 40
0.0
 40
0.0
 40
0.0
 40
0.0
 40
0.0536837951344068
 40
0.1073663409864874
 40
0.1610545108244782
 40
0.2147460554492625
 40
0.2684313610816624
 40
0.3221098413320448
 40
0.3757915267880705
 40
0.4294835359540708
 40
0.4831741550373422
 40
0.5368555917954629
 40
0.5905331795078429
 40
0.6442197855308942
 40
0.697911050536547
 40
0.7515990089624913
 40
0.8052787093187928
 40
0.8589586775442665
 40
0.9126463045519296
 40
0.966338035326598
 40
0.9999999999999999
 40
0.9999999999999999
 40
0.9999999999999999
 40
0.9999999999999999
 10
5.32300455181438
 20
18.3519185213544
 30
0.0
 10
5.333545854634016
 20
18.35120003507368
 30
0.0
 10
5.354628214965297
 20
18.34976307923222
 30
0.0
 10
5.382686947927239
 20
18.33853699531398
 30
0.0
 10
5.404019911097591
 20
18.32193203501601
 30
0.0
 10
5.416217940196471
 20
18.30107876116296
 30
0.0
 10
5.417909680297889
 20
18.27845804868864
 30
0.0
 10
5.408901675506709
 20
18.25656521892668
 30
0.0
 10
5.39021370124957
 20
18.23791748393735
 30
0.0
 10
5.363946268678118
 20
18.22468332290925
 30
0.0
 10
5.333063073855923
 20
18.21842470832055
 30
0.0
 10
5.301048045590346
 20
18.2198859918077
 30
0.0
 10
5.271510388147056
 20
18.22889202231674
 30
0.0
 10
5.247774312958708
 20
18.24437385144434
 30
0.0
 10
5.232519343684677
 20
18.26451760063858
 30
0.0
 10
5.227466254129808
 20
18.28699035339074
 30
0.0
 10
5.233181602548288
 20
18.30922512913945
 30
0.0
 10
5.249024701299895
 20
18.32877876136748
 30
0.0
 10
5.273194436603065
 20
18.3433748230978
 30
0.0
 10
5.299321851198659
 20
18.35088618264235
 30
0.0
 10
5.316416923149657
 20
18.35163136389708
 30
0.0
 10
5.323004551814384
 20
18.3519185213544
 30
0.0
  0
SPLINE
  5
15D
330
1F
100
AcDbEntity
  8
0
  6
Continuous
 62
     7
370
    30
100
AcDbSpline
210
0.0
220
0.0
230
1.0
 70
    11
 71
     3
 72
    26
 73
    22
 74
     0
 42
0.00000001
 43
0.00000001
 40
0.0
 40
0.0
 40
0.0
 40
0.0
 40
0.0536798498233662
 40
0.1073624801238441
 40
0.1610509762218327
 40
0.2147421961315094
 40
0.268427678347796
 40
0.3221063293762463
 40
0.3757880149597994
 40
0.4294763865747032
 40
0.4831672007779083
 40
0.5368526546847844
 40
0.5905302074471518
 40
0.6442139730584233
 40
0.6979072983651037
 40
0.7515949941458868
 40
0.8052746078976583
 40
0.8589545762506552
 40
0.9126423752652912
 40
0.9663340095620999
 40
1.0
 40
1.0
 40
1.0
 40
1.0
 10
5.32300455181438
 20
11.23791504292965
 30
0.0
 10
5.312464057710118
 20
11.23863360246764
 30
0.0
 10
5.291382523531313
 20
11.24007075876316
 30
0.0
 10
5.263324427255272
 20
11.25129666288078
 30
0.0
 10
5.241991675934264
 20
11.26790212000585
 30
0.0
 10
5.229793442461945
 20
11.28875498621003
 30
0.0
 10
5.228101801709639
 20
11.3113759009973
 30
0.0
 10
5.237109699678647
 20
11.33326886218188
 30
0.0
 10
5.255797492489354
 20
11.35191613526973
 30
0.0
 10
5.282063334194133
 20
11.36515035967514
 30
0.0
 10
5.312946842023253
 20
11.37140980097905
 30
0.0
 10
5.34496246341701
 20
11.36994777819615
 30
0.0
 10
5.374501186210659
 20
11.36094257810847
 30
0.0
 10
5.398234312706012
 20
11.34545881069298
 30
0.0
 10
5.413492720023505
 20
11.32531662205048
 30
0.0
 10
5.418545011482843
 20
11.3028434331433
 30
0.0
 10
5.412829894548028
 20
11.28060878885781
 30
0.0
 10
5.396986682504813
 20
11.26105524184866
 30
0.0
 10
5.372817115011101
 20
11.24645871788811
 30
0.0
 10
5.346688805078969
 20
11.23894773192903
 30
0.0
 10
5.329592967164541
 20
11.23820231329361
 30
0.0
 10
5.323004551814384
 20
11.23791504292965
 30
0.0
  0
LINE
  5
15E
330
1F
100
AcDbEntity
  8
0
  6
Continuous
 62
     7
370
    30
100
AcDbLine
 10
2.6980042627
 20
9.8574169106
 30
0.0
 11
2.6980042627
 21
19.7324168737
 31
0.0
  0
SPLINE
  5
15F
330
1F
100
AcDbEntity
  8
0
  6
Continuous
 62
     7
370
    30
100
AcDbSpline
210
0.0
220
0.0
230
1.0
 70
     8
 71
     3
 72
    12
 73
     8
 74
     0
 42
0.00000001
 43
0.00000001
 40
0.0
 40
0.0
 40
0.0
 40
0.0
 40
0.2404918974096301
 40
0.4809780254362295
 40
0.7214895834205748
 40
0.9620154471120098
 40
1.0
 40
1.0
 40
1.0
 40
1.0
 10
5.323004551814384
 20
18.3278725058027
 30
0.0
 10
5.333532114232767
 20
18.32715304167921
 30
0.0
 10
5.35458698651408
 20
18.32571413069214
 30
0.0
 10
5.382851823498995
 20
18.31450579944531
 30
0.0
 10
5.403401574628866
 20
18.29784021653301
 30
0.0
 10
5.414281237530187
 20
18.2830079379938
 30
0.0
 10
5.414676140189654
 20
18.27440729901397
 30
0.0
 10
5.41472999886086
 20
18.27323430365453
 30
0.0
  0
SPLINE
  5
160
330
1F
100
AcDbEntity
  8
0
  6
Continuous
 62
     7
370
    30
100
AcDbSpline
210
0.0
220
0.0
230
1.0
 70
     8
 71
     3
 72
    12
 73
     8
 74
     0
 42
0.00000001
 43
0.00000001
 40
0.0
 40
0.0
 40
0.0
 40
0.0
 40
0.12749641314368
 40
0.368024068569112
 40
0.6085869412422495
 40
0.8491682002061981
 40
1.0
 40
1.0
 40
1.0
 40
1.0
 10
5.231896270971686
 20
18.27316676443475
 30
0.0
 10
5.232615859363634
 20
18.27708039926259
 30
0.0
 10
5.234692983269877
 20
18.28837728030198
 30
0.0
 10
5.249349451108283
 20
18.30469099528907
 30
0.0
 10
5.273106493147052
 20
18.31934171723963
 30
0.0
 10
5.299334550208315
 20
18.32683852498162
 30
0.0
 10
5.316420461827984
 20
18.32758489184797
 30
0.0
 10
5.323004551814384
 20
18.3278725058027
 30
0.0
  0
SPLINE
  5
161
330
1F
100
AcDbEntity
  8
0
  6
Continuous
 62
     7
370
    30
100
AcDbSpline
210
0.0
220
0.0
230
1.0
 70
     8
 71
     3
 72
    12
 73
     8
 74
     0
 42
0.00000001
 43
0.00000001
 40
0.0
 40
0.0
 40
0.0
 40
0.0
 40
0.2448570388389462
 40
0.4897247732675979
 40
0.7346196600055764
 40
0.9795295564996863
 40
1.0
 40
1.0
 40
1.0
 40
1.0
 10
5.323004551814384
 20
11.26196105848136
 30
0.0
 10
5.312479729704848
 20
11.26268107572766
 30
0.0
 10
5.291429625751482
 20
11.2641211416713
 30
0.0
 10
5.263136550079259
 20
11.27532508664963
 30
0.0
 10
5.242696089902146
 20
11.29200366381546
 30
0.0
 10
5.231907789206849
 20
11.30629198614429
 30
0.0
 10
5.231441770256954
 20
11.31432883407441
 30
0.0
 10
5.231405823304046
 20
11.31494876636283
 30
0.0
  0
SPLINE
  5
162
330
1F
100
AcDbEntity
  8
0
  6
Continuous
 62
     7
370
    30
100
AcDbSpline
210
0.0
220
0.0
230
1.0
 70
     8
 71
     3
 72
    12
 73
     8
 74
     0
 42
0.00000001
 43
0.00000001
 40
0.0
 40
0.0
 40
0.0
 40
0.0
 40
0.1181074789363783
 40
0.3612185560621551
 40
0.6043661808644297
 40
0.8475300714161225
 40
1.0
 40
1.0
 40
1.0
 40
1.0
 10
5.41386643550348
 20
11.31570145100109
 30
0.0
 10
5.413193824163019
 20
11.31211732933975
 30
0.0
 10
5.411136717370277
 20
11.30115569284631
 30
0.0
 10
5.396636362841705
 20
11.28514844846326
 30
0.0
 10
5.372912062533064
 20
11.27049007194684
 30
0.0
 10
5.346675053270554
 20
11.26299587058293
 30
0.0
 10
5.329589144022672
 20
11.26224891954394
 30
0.0
 10
5.323004551814384
 20
11.26196105848136
 30
0.0
  0
LINE
  5
163
330
1F
100
AcDbEntity
  8
0
  6
Continuous
 62
     7
370
    30
100
AcDbLine
 10
5.8540044977
 20
22.7314168023
 30
0.0
 11
5.8540044977
 21
32.6064172055
 31
0.0
  0
SPLINE
  5
164
330
1F
100
AcDbEntity
  8
0
  6
Continuous
 62
     7
370
    30
100
AcDbSpline
210
0.0
220
0.0
230
1.0
 70
     8
 71
     3
 72
    11
 73
     7
 74
     0
 42
0.00000001
 43
0.00000001
 40
0.0
 40
0.0
 40
0.0
 40
0.0
 40
0.1502738844362163
 40
0.4489764971385884
 40
0.7476748767391821
 40
1.0
 40
1.0
 40
1.0
 40
1.0
 10
5.854004497657699
 20
22.73141680234988
 30
0.0
 10
5.854360423278905
 20
22.72436790595526
 30
0.0
 10
5.8554238298665
 20
22.70330776750326
 30
0.0
 10
5.867833239220451
 20
22.66982297837206
 30
0.0
 10
5.892550089429552
 20
22.63720001164242
 30
0.0
 10
5.915496468374738
 20
22.62487713373553
 30
0.0
 10
5.926004092578901
 20
22.61923423162584
 30
0.0
  0
SPLINE
  5
165
330
1F
100
AcDbEntity
  8
0
  6
Continuous
 62
     7
370
    30
100
AcDbSpline
210
0.0
220
0.0
230
1.0
 70
     8
 71
     3
 72
    12
 73
     8
 74
     0
 42
0.00000001
 43
0.00000001
 40
0.0
 40
0.0
 40
0.0
 40
0.0
 40
0.0660107583147111
 40
0.3647943854758033
 40
0.6635755774936188
 40
0.9623649122267488
 40
0.9999999999999999
 40
0.9999999999999999
 40
0.9999999999999999
 40
0.9999999999999999
 10
5.926004092578901
 20
22.61955630790519
 30
0.0
 10
5.923062034757573
 20
22.62053372159507
 30
0.0
 10
5.90680337931465
 20
22.62593519001414
 30
0.0
 10
5.883250618837407
 20
22.64839953581915
 30
0.0
 10
5.860644696703925
 20
22.68398264359878
 30
0.0
 10
5.854246181934069
 20
22.71391005413495
 30
0.0
 10
5.854028814133303
 20
22.72965540346123
 30
0.0
 10
5.854004497657699
 20
22.73141680234988
 30
0.0
  0
SPLINE
  5
166
330
1F
100
AcDbEntity
  8
0
  6
Continuous
 62
     7
370
    30
100
AcDbSpline
210
0.0
220
0.0
230
1.0
 70
    11
 71
     3
 72
    26
 73
    22
 74
     0
 42
0.00000001
 43
0.00000001
 40
0.0
 40
0.0
 40
0.0
 40
0.0
 40
0.0539616888521404
 40
0.1079207217754176
 40
0.1619073114369322
 40
0.2156967625402294
 40
0.26913981287406
 40
0.3223713927390063
 40
0.3757112781539182
 40
0.4293798906008799
 40
0.4833228731436208
 40
0.5373029331552274
 40
0.5911346444995261
 40
0.6448054624440785
 40
0.6983941079542912
 40
0.751966194703767
 40
0.8055439556288001
 40
0.8591202084509145
 40
0.9126937426631223
 40
0.9662823918578787
 40
1.0
 40
1.0
 40
1.0
 40
1.0
 10
5.542004688572783
 20
28.0439168985621
 30
0.0
 10
5.539565798953428
 20
28.06862657306576
 30
0.0
 10
5.534688139753916
 20
28.11804470589288
 30
0.0
 10
5.496714282298484
 20
28.1837289005085
 30
0.0
 10
5.440817091275474
 20
28.23357091789336
 30
0.0
 10
5.371167788265001
 20
28.26184878705217
 30
0.0
 10
5.296491598933474
 20
28.26548890323757
 30
0.0
 10
5.225014655764871
 20
28.24438294915836
 30
0.0
 10
5.164481011063032
 20
28.20097386621622
 30
0.0
 10
5.121485260204644
 20
28.13985804502056
 30
0.0
 10
5.101049134907737
 20
28.06766648113764
 30
0.0
 10
5.105755350000508
 20
27.9926253140656
 30
0.0
 10
5.135102352935004
 20
27.9234349400865
 30
0.0
 10
5.185658020721477
 20
27.86798664527636
 30
0.0
 10
5.251633479803462
 20
27.83244557467996
 30
0.0
 10
5.325625554999862
 20
27.82074352156978
 30
0.0
 10
5.399290803783276
 20
27.83417372187131
 30
0.0
 10
5.464452690654754
 20
27.87123127645547
 30
0.0
 10
5.513308881744272
 20
27.92767581387194
 30
0.0
 10
5.538532586562989
 20
27.98865261095521
 30
0.0
 10
5.541037350647064
 20
28.0285201040009
 30
0.0
 10
5.542004688572783
 20
28.0439168985621
 30
0.0
  0
LINE
  5
167
330
1F
100
AcDbEntity
  8
0
  6
Continuous
 62
     7
370
    30
100
AcDbLine
 10
2.6980042627
 20
22.7314168023
 30
0.0
 11
2.6980042627
 21
32.6064172055
 31
0.0
  0
LINE
  5
168
330
1F
100
AcDbEntity
  8
0
  6
Continuous
 62
     7
370
    30
100
AcDbLine
 10
5.8540044977
 20
22.7314168023
 30
0.0
 11
2.6980042627
 21
22.7314168023
 31
0.0
  0
SPLINE
  5
169
330
1F
100
AcDbEntity
  8
0
  6
Continuous
 62
     7
370
    30
100
AcDbSpline
210
0.0
220
0.0
230
1.0
 70
    11
 71
     3
 72
    26
 73
    22
 74
     0
 42
0.00000001
 43
0.00000001
 40
0.0
 40
0.0
 40
0.0
 40
0.0
 40
0.0537304952184573
 40
0.1074657421988095
 40
0.1610999848289749
 40
0.214679872213134
 40
0.2682535692724184
 40
0.3218301800817656
 40
0.3754052490560857
 40
0.4289788360652804
 40
0.4825840492242311
 40
0.5362977613355021
 40
0.5901858076443047
 40
0.6441805019352723
 40
0.6980594103000088
 40
0.7516126343420433
 40
0.8048809713635676
 40
0.8581510515122779
 40
0.9117059988256057
 40
0.9655821035795925
 40
1.0
 40
1.0
 40
1.0
 40
1.0
 10
5.542004688572783
 20
27.29391681596039
 30
0.0
 10
5.539586704119221
 20
27.31853870640846
 30
0.0
 10
5.53475052137289
 20
27.36778466478985
 30
0.0
 10
5.496966373463763
 20
27.43338709898442
 30
0.0
 10
5.441322112242514
 20
27.4832186981231
 30
0.0
 10
5.371910264098012
 20
27.51167751292611
 30
0.0
 10
5.297136917022134
 20
27.51560134246552
 30
0.0
 10
5.225247962021486
 20
27.49455806039036
 30
0.0
 10
5.16438890912052
 20
27.45092913791711
 30
0.0
 10
5.121402137702325
 20
27.38965087262309
 30
0.0
 10
5.101084917587295
 20
27.31762744482645
 30
0.0
 10
5.105725051508464
 20
27.2428879935408
 30
0.0
 10
5.134884052596555
 20
27.17377057948949
 30
0.0
 10
5.185411179509085
 20
27.11813949077614
 30
0.0
 10
5.25152930366704
 20
27.08246292044326
 30
0.0
 10
5.32551010305349
 20
27.07076495767696
 30
0.0
 10
5.398880278081925
 20
27.08408215678971
 30
0.0
 10
5.46378176393323
 20
27.12074086200345
 30
0.0
 10
5.512749258493444
 20
27.17677770205866
 30
0.0
 10
5.538412696986888
 20
27.23790205445663
 30
0.0
 10
5.540997216626141
 20
27.27820594931064
 30
0.0
 10
5.542004688572783
 20
27.29391681596039
 30
0.0
  0
SPLINE
  5
16A
330
1F
100
AcDbEntity
  8
0
  6
Continuous
 62
     7
370
    30
100
AcDbSpline
210
0.0
220
0.0
230
1.0
 70
    11
 71
     3
 72
    26
 73
    22
 74
     0
 42
0.00000001
 43
0.00000001
 40
0.0
 40
0.0
 40
0.0
 40
0.0
 40
0.0536836907585948
 40
0.1073663331185687
 40
0.1610548412773711
 40
0.2147467229366322
 40
0.2684322172130556
 40
0.322110880300108
 40
0.375791996668558
 40
0.4294836571924942
 40
0.4831744834570338
 40
0.5368559551704951
 40
0.5905335199912181
 40
0.6442197763295798
 40
0.6979112105039937
 40
0.7515989183454108
 40
0.8052785441560006
 40
0.8589585245678958
 40
0.9126463356431891
 40
0.9663379820015165
 40
1.0
 40
1.0
 40
1.0
 40
1.0
 10
5.32300455181438
 20
31.2259184864749
 30
0.0
 10
5.333545861645285
 20
31.2252002535559
 30
0.0
 10
5.354628275443923
 20
31.2237638017444
 30
0.0
 10
5.382687008689077
 20
31.21253737553177
 30
0.0
 10
5.404019901917266
 20
31.1959320621289
 30
0.0
 10
5.416217935988088
 20
31.17507849850471
 30
0.0
 10
5.417909661377228
 20
31.15245768414039
 30
0.0
 10
5.408901796807982
 20
31.13056465923413
 30
0.0
 10
5.390213662261771
 20
31.11191743581204
 30
0.0
 10
5.363946084455866
 20
31.09868419477547
 30
0.0
 10
5.333063156490312
 20
31.09242433293965
 30
0.0
 10
5.301048039568029
 20
31.09388640809778
 30
0.0
 10
5.271510501163171
 20
31.10289225013495
 30
0.0
 10
5.24777417935939
 20
31.11837350717282
 30
0.0
 10
5.232519413314727
 20
31.13851753835324
 30
0.0
 10
5.22746623978369
 20
31.16098999827523
 30
0.0
 10
5.233181609099928
 20
31.18322476711944
 30
0.0
 10
5.249024753232242
 20
31.20277827924378
 30
0.0
 10
5.273194339994688
 20
31.21737481818898
 30
0.0
 10
5.299321904625681
 20
31.22488557026841
 30
0.0
 10
5.316416928785678
 20
31.22563116797817
 30
0.0
 10
5.323004551814384
 20
31.22591848647489
 30
0.0
  0
SPLINE
  5
16B
330
1F
100
AcDbEntity
  8
0
  6
Continuous
 62
     7
370
    30
100
AcDbSpline
210
0.0
220
0.0
230
1.0
 70
    11
 71
     3
 72
    26
 73
    22
 74
     0
 42
0.00000001
 43
0.00000001
 40
0.0
 40
0.0
 40
0.0
 40
0.0
 40
0.0536837627128344
 40
0.1073663052859106
 40
0.1610546708110753
 40
0.214746047405072
 40
0.268431349758299
 40
0.3221098267299253
 40
0.3757915089069992
 40
0.4294836632136271
 40
0.4831742337239929
 40
0.5368556676204573
 40
0.5905332169766079
 40
0.6442199370504105
 40
0.6979111987765263
 40
0.7515992415143279
 40
0.8052788518597516
 40
0.8589588168063784
 40
0.9126463799624587
 40
0.9663380085727009
 40
1.0
 40
1.0
 40
1.0
 40
1.0
 10
5.323004551814384
 20
24.24449801643991
 30
0.0
 10
5.333545853628067
 20
24.2437509200576
 30
0.0
 10
5.354628217669739
 20
24.24225674427321
 30
0.0
 10
5.382687009571568
 20
24.2306325962288
 30
0.0
 10
5.404019832261882
 20
24.21358565446215
 30
0.0
 10
5.416217967689579
 20
24.19241499623543
 30
0.0
 10
5.417909671335115
 20
24.1697473181114
 30
0.0
 10
5.408901685599275
 20
24.14809663726546
 30
0.0
 10
5.390213652614794
 20
24.12987462895568
 30
0.0
 10
5.363946339741776
 20
24.11706264856103
 30
0.0
 10
5.333063045852436
 20
24.11103866686661
 30
0.0
 10
5.301048068268242
 20
24.1124432896278
 30
0.0
 10
5.271510335877083
 20
24.12112634535438
 30
0.0
 10
5.247774346721136
 20
24.13616100687687
 30
0.0
 10
5.232519329577073
 20
24.15592859604651
 30
0.0
 10
5.22746625472525
 20
24.17826166001149
 30
0.0
 10
5.233181612086336
 20
24.20065365975186
 30
0.0
 10
5.249024691042217
 20
24.22059432150137
 30
0.0
 10
5.273194418210765
 20
24.2356322657701
 30
0.0
 10
5.299321892695814
 20
24.2434249269458
 30
0.0
 10
5.3164169268082
 20
24.24419952330407
 30
0.0
 10
5.323004551814384
 20
24.24449801643991
 30
0.0
  0
SPLINE
  5
16C
330
1F
100
AcDbEntity
  8
0
  6
Continuous
 62
     7
370
    30
100
AcDbSpline
210
0.0
220
0.0
230
1.0
 70
     8
 71
     3
 72
    12
 73
     8
 74
     0
 42
0.00000001
 43
0.00000001
 40
0.0
 40
0.0
 40
0.0
 40
0.0
 40
0.2448704333338531
 40
0.4897356355574505
 40
0.7346240714626039
 40
0.979529896782926
 40
1.0
 40
1.0
 40
1.0
 40
1.0
 10
5.323004551814384
 20
31.20187247092318
 30
0.0
 10
5.333530211513508
 20
31.20115284746349
 30
0.0
 10
5.354581306054534
 20
31.19971361591724
 30
0.0
 10
5.382874626786963
 20
31.18850812377723
 30
0.0
 10
5.403315515535681
 20
31.1718306226819
 30
0.0
 10
5.414103659488078
 20
31.15754212636268
 30
0.0
 10
5.414569679898699
 20
31.14950528173526
 30
0.0
 10
5.414605626964281
 20
31.14888534970159
 30
0.0
  0
SPLINE
  5
16D
330
1F
100
AcDbEntity
  8
0
  6
Continuous
 62
     7
370
    30
100
AcDbSpline
210
0.0
220
0.0
230
1.0
 70
     8
 71
     3
 72
    12
 73
     8
 74
     0
 42
0.00000001
 43
0.00000001
 40
0.0
 40
0.0
 40
0.0
 40
0.0
 40
0.1181096078609477
 40
0.3612250671405885
 40
0.6043770747555104
 40
0.8475453484130459
 40
1.0
 40
1.0
 40
1.0
 40
1.0
 10
5.232145014764839
 20
31.14813207840345
 30
0.0
 10
5.232817626108749
 20
31.15171620009971
 30
0.0
 10
5.234874732912012
 20
31.16267783669997
 30
0.0
 10
5.249375087296634
 20
31.17868507962196
 30
0.0
 10
5.273099388211585
 20
31.19334346229192
 30
0.0
 10
5.299335655152334
 20
31.20083743217519
 30
0.0
 10
5.316420751369708
 20
31.20158456191473
 30
0.0
 10
5.323004551814384
 20
31.20187247092318
 30
0.0
  0
SPLINE
  5
16E
330
1F
100
AcDbEntity
  8
0
  6
Continuous
 62
     7
370
    30
100
AcDbSpline
210
0.0
220
0.0
230
1.0
 70
     8
 71
     3
 72
    16
 73
    12
 74
     0
 42
0.00000001
 43
0.00000001
 40
0.0
 40
0.0
 40
0.0
 40
0.0
 40
0.0968872767334933
 40
0.2185661033370419
 40
0.3402689957362095
 40
0.4619683536317135
 40
0.583646825841537
 40
0.7053164270080029
 40
0.8270067324888134
 40
0.9487068822907063
 40
1.0
 40
1.0
 40
1.0
 40
1.0
 10
5.414326376856869
 20
24.18962947695262
 30
0.0
 10
5.412476603721443
 20
24.183843620581
 30
0.0
 10
5.408303736861106
 20
24.17079142090888
 30
0.0
 10
5.390016378996024
 20
24.15395090328312
 30
0.0
 10
5.364001057194008
 20
24.14109985312723
 30
0.0
 10
5.333041425526359
 20
24.13508612678808
 30
0.0
 10
5.301079943318047
 20
24.13649234279567
 30
0.0
 10
5.271404513396527
 20
24.14515699735358
 30
0.0
 10
5.248165926607841
 20
24.16025661164695
 30
0.0
 10
5.234357716881329
 20
24.17601030728185
 30
0.0
 10
5.232638378283517
 20
24.18651959560106
 30
0.0
 10
5.232128588287937
 20
24.18963563688147
 30
0.0
  0
LINE
  5
16F
330
1F
100
AcDbEntity
  8
0
  6
Continuous
 62
     8
370
    30
100
AcDbLine
 10
5.3479258639
 20
27.5088015336
 30
0.0
 11
5.3479258639
 21
27.0789822322
 31
0.0
  0
LINE
  5
170
330
1F
100
AcDbEntity
  8
0
  6
Continuous
 62
     8
370
    30
100
AcDbLine
 10
5.2980855863
 20
27.0792773222
 30
0.0
 11
5.2980855863
 21
27.5114162767
 31
0.0
  0
LINE
  5
171
330
1F
100
AcDbEntity
  8
0
  6
Continuous
 62
     8
370
    30
100
AcDbLine
 10
5.3479258639
 20
28.2588696687
 30
0.0
 11
5.3479258639
 21
27.8290069546
 31
0.0
  0
LINE
  5
172
330
1F
100
AcDbEntity
  8
0
  6
Continuous
 62
     8
370
    30
100
AcDbLine
 10
5.2980855863
 20
27.8292791647
 30
0.0
 11
5.2980855863
 21
28.2612966807
 31
0.0
  0
LINE
  5
173
330
1F
100
AcDbEntity
  8
0
  6
Continuous
 62
     8
370
    30
100
AcDbLine
 10
25.9425206734
 20
41.0164319456
 30
0.0
 11
25.9425206734
 21
34.8169164696
 31
0.0
  0
LINE
  5
174
330
1F
100
AcDbEntity
  8
0
  6
Continuous
 62
     8
370
    30
100
AcDbLine
 10
7.9724896781
 20
34.8169164696
 30
0.0
 11
7.9724896781
 21
41.0164319456
 31
0.0
  0
LINE
  5
175
330
1F
100
AcDbEntity
  8
0
  6
Continuous
 62
     8
370
    30
100
AcDbLine
 10
25.9425206734
 20
7.6919173933
 30
0.0
 11
25.9425206734
 21
1.4474015838
 31
0.0
  0
LINE
  5
176
330
1F
100
AcDbEntity
  8
0
  6
Continuous
 62
     8
370
    30
100
AcDbLine
 10
7.9724896781
 20
1.4474015838
 30
0.0
 11
7.9724896781
 21
7.6919173933
 31
0.0
  0
LINE
  5
177
330
1F
100
AcDbEntity
  8
FORMAT
100
AcDbLine
 10
62.2569624715
 20
21.8022071281
 30
0.0
 11
62.2569624715
 21
19.6877826939
 31
0.0
  0
LINE
  5
178
330
1F
100
AcDbEntity
  8
FORMAT
100
AcDbLine
 10
62.2569624715
 20
19.6877826939
 30
0.0
 11
65.8559379261
 21
19.6877826939
 31
0.0
  0
LINE
  5
179
330
1F
100
AcDbEntity
  8
FORMAT
100
AcDbLine
 10
65.8559379261
 20
19.6877826939
 30
0.0
 11
65.8559379261
 21
17.8789450631
 31
0.0
  0
LINE
  5
17A
330
1F
100
AcDbEntity
  8
FORMAT
100
AcDbLine
 10
65.8559379261
 20
17.8789450631
 30
0.0
 11
68.721987774
 21
20.744994911
 31
0.0
  0
LINE
  5
17B
330
1F
100
AcDbEntity
  8
FORMAT
100
AcDbLine
 10
68.721987774
 20
20.744994911
 30
0.0
 11
65.8559379261
 21
23.611044759
 31
0.0
  0
LINE
  5
17C
330
1F
100
AcDbEntity
  8
FORMAT
100
AcDbLine
 10
65.8559379261
 20
23.611044759
 30
0.0
 11
65.8559379261
 21
21.8022071281
 31
0.0
  0
LINE
  5
17D
330
1F
100
AcDbEntity
  8
FORMAT
100
AcDbLine
 10
65.8559379261
 20
21.8022071281
 30
0.0
 11
62.2569624715
 21
21.8022071281
 31
0.0
  0
ENDSEC
  0
SECTION
  2
OBJECTS
  0
DICTIONARY
  5
C
330
0
100
AcDbDictionary
281
     1
  3
ACAD_GROUP
350
D
  3
ACAD_LAYOUT
350
1A
  3
ACAD_MLINESTYLE
350
17
  3
ACAD_PLOTSETTINGS
350
19
  3
ACAD_PLOTSTYLENAME
350
E
  3
ACAD_SCALELIST
350
4C
  3
AcDbVariableDictionary
350
17E
  0
DICTIONARY
  5
D
102
{ACAD_REACTORS
330
C
102
}
330
C
100
AcDbDictionary
281
     1
  0
DICTIONARY
  5
1A
102
{ACAD_REACTORS
330
C
102
}
330
C
100
AcDbDictionary
281
     1
  3
Layout1
350
1E
  3
Layout2
350
26
  3
Model
350
22
  0
DICTIONARY
  5
17
102
{ACAD_REACTORS
330
C
102
}
330
C
100
AcDbDictionary
281
     1
  3
Standard
350
18
  0
DICTIONARY
  5
19
102
{ACAD_REACTORS
330
C
102
}
330
C
100
AcDbDictionary
281
     1
  0
ACDBDICTIONARYWDFLT
  5
E
102
{ACAD_REACTORS
330
C
102
}
330
C
100
AcDbDictionary
281
     1
  3
Normal
350
F
100
AcDbDictionaryWithDefault
340
F
  0
DICTIONARY
  5
4C
102
{ACAD_REACTORS
330
C
102
}
330
C
100
AcDbDictionary
281
     1
  3
A0
350
4D
  3
A1
350
4E
  3
A2
350
4F
  3
A3
350
50
  3
A4
350
51
  3
A5
350
52
  3
A6
350
53
  3
A7
350
54
  3
A8
350
55
  3
A9
350
56
  3
B0
350
57
  3
B1
350
58
  3
B2
350
59
  3
B3
350
5A
  3
B4
350
5B
  3
B5
350
5C
  3
B6
350
5D
  3
B7
350
5E
  3
B8
350
5F
  3
B9
350
60
  3
C0
350
61
  3
C1
350
62
  3
C2
350
63
  3
C3
350
64
  3
C4
350
65
  3
C5
350
66
  3
C6
350
67
  3
C7
350
68
  3
C8
350
69
  3
C9
350
6A
  3
D0
350
6B
  3
D1
350
6C
  3
D2
350
6D
  0
DICTIONARY
  5
17E
102
{ACAD_REACTORS
330
C
102
}
330
C
100
AcDbDictionary
281
     1
  3
CANNOSCALE
350
17F
  0
LAYOUT
  5
1E
102
{ACAD_REACTORS
330
1A
102
}
330
1A
100
AcDbPlotSettings
  1

  2
none_device
  4

  6

 40
0.0
 41
0.0
 42
0.0
 43
0.0
 44
0.0
 45
0.0
 46
0.0
 47
0.0
 48
0.0
 49
0.0
140
0.0
141
0.0
142
1.0
143
1.0
 70
   688
 72
     0
 73
     0
 74
     5
  7

 75
    16
147
1.0
148
0.0
149
0.0
100
AcDbLayout
  1
Layout1
 70
     1
 71
     1
 10
0.0
 20
0.0
 11
12.0
 21
9.0
 12
0.0
 22
0.0
 32
0.0
 14
1.0000000000E+20
 24
1.0000000000E+20
 34
1.0000000000E+20
 15
-1.0000000000E+20
 25
-1.0000000000E+20
 35
-1.0000000000E+20
146
0.0
 13
0.0
 23
0.0
 33
0.0
 16
1.0
 26
0.0
 36
0.0
 17
0.0
 27
1.0
 37
0.0
 76
     0
330
1B
  0
LAYOUT
  5
26
102
{ACAD_REACTORS
330
1A
102
}
330
1A
100
AcDbPlotSettings
  1

  2
none_device
  4

  6

 40
0.0
 41
0.0
 42
0.0
 43
0.0
 44
0.0
 45
0.0
 46
0.0
 47
0.0
 48
0.0
 49
0.0
140
0.0
141
0.0
142
1.0
143
1.0
 70
   688
 72
     0
 73
     0
 74
     5
  7

 75
    16
147
1.0
148
0.0
149
0.0
100
AcDbLayout
  1
Layout2
 70
     1
 71
     2
 10
0.0
 20
0.0
 11
0.0
 21
0.0
 12
0.0
 22
0.0
 32
0.0
 14
0.0
 24
0.0
 34
0.0
 15
0.0
 25
0.0
 35
0.0
146
0.0
 13
0.0
 23
0.0
 33
0.0
 16
1.0
 26
0.0
 36
0.0
 17
0.0
 27
1.0
 37
0.0
 76
     0
330
23
  0
LAYOUT
  5
22
102
{ACAD_REACTORS
330
1A
102
}
330
1A
100
AcDbPlotSettings
  1

  2
none_device
  4

  6

 40
0.0
 41
0.0
 42
0.0
 43
0.0
 44
0.0
 45
0.0
 46
0.0
 47
0.0
 48
0.0
 49
0.0
140
0.0
141
0.0
142
1.0
143
1.0
 70
  1712
 72
     0
 73
     0
 74
     0
  7

 75
     0
147
1.0
148
0.0
149
0.0
100
AcDbLayout
  1
Model
 70
     1
 71
     0
 10
0.0
 20
0.0
 11
70.0
 21
42.0
 12
0.0
 22
0.0
 32
0.0
 14
0.0
 24
0.0
 34
0.0
 15
70.0
 25
42.0
 35
0.0
146
0.0
 13
0.0
 23
0.0
 33
0.0
 16
1.0
 26
0.0
 36
0.0
 17
0.0
 27
1.0
 37
0.0
 76
     0
330
1F
331
29
  0
MLINESTYLE
  5
18
102
{ACAD_REACTORS
330
17
102
}
330
17
100
AcDbMlineStyle
  2
Standard
 70
     0
  3

 62
   256
 51
90.0
 52
90.0
 71
     2
 49
0.5
 62
   256
  6
BYLAYER
 49
-0.5
 62
   256
  6
BYLAYER
  0
ACDBPLACEHOLDER
  5
F
102
{ACAD_REACTORS
330
E
102
}
330
E
  0
SCALE
  5
4D
102
{ACAD_REACTORS
330
4C
102
}
330
4C
100
AcDbScale
 70
     0
300
1:1
140
1.0
141
1.0
290
     1
  0
SCALE
  5
4E
102
{ACAD_REACTORS
330
4C
102
}
330
4C
100
AcDbScale
 70
     0
300
1:2
140
1.0
141
2.0
290
     0
  0
SCALE
  5
4F
102
{ACAD_REACTORS
330
4C
102
}
330
4C
100
AcDbScale
 70
     0
300
1:4
140
1.0
141
4.0
290
     0
  0
SCALE
  5
50
102
{ACAD_REACTORS
330
4C
102
}
330
4C
100
AcDbScale
 70
     0
300
1:5
140
1.0
141
5.0
290
     0
  0
SCALE
  5
51
102
{ACAD_REACTORS
330
4C
102
}
330
4C
100
AcDbScale
 70
     0
300
1:8
140
1.0
141
8.0
290
     0
  0
SCALE
  5
52
102
{ACAD_REACTORS
330
4C
102
}
330
4C
100
AcDbScale
 70
     0
300
1:10
140
1.0
141
10.0
290
     0
  0
SCALE
  5
53
102
{ACAD_REACTORS
330
4C
102
}
330
4C
100
AcDbScale
 70
     0
300
1:16
140
1.0
141
16.0
290
     0
  0
SCALE
  5
54
102
{ACAD_REACTORS
330
4C
102
}
330
4C
100
AcDbScale
 70
     0
300
1:20
140
1.0
141
20.0
290
     0
  0
SCALE
  5
55
102
{ACAD_REACTORS
330
4C
102
}
330
4C
100
AcDbScale
 70
     0
300
1:30
140
1.0
141
30.0
290
     0
  0
SCALE
  5
56
102
{ACAD_REACTORS
330
4C
102
}
330
4C
100
AcDbScale
 70
     0
300
1:40
140
1.0
141
40.0
290
     0
  0
SCALE
  5
57
102
{ACAD_REACTORS
330
4C
102
}
330
4C
100
AcDbScale
 70
     0
300
1:50
140
1.0
141
50.0
290
     0
  0
SCALE
  5
58
102
{ACAD_REACTORS
330
4C
102
}
330
4C
100
AcDbScale
 70
     0
300
1:100
140
1.0
141
100.0
290
     0
  0
SCALE
  5
59
102
{ACAD_REACTORS
330
4C
102
}
330
4C
100
AcDbScale
 70
     0
300
2:1
140
2.0
141
1.0
290
     0
  0
SCALE
  5
5A
102
{ACAD_REACTORS
330
4C
102
}
330
4C
100
AcDbScale
 70
     0
300
4:1
140
4.0
141
1.0
290
     0
  0
SCALE
  5
5B
102
{ACAD_REACTORS
330
4C
102
}
330
4C
100
AcDbScale
 70
     0
300
8:1
140
8.0
141
1.0
290
     0
  0
SCALE
  5
5C
102
{ACAD_REACTORS
330
4C
102
}
330
4C
100
AcDbScale
 70
     0
300
10:1
140
10.0
141
1.0
290
     0
  0
SCALE
  5
5D
102
{ACAD_REACTORS
330
4C
102
}
330
4C
100
AcDbScale
 70
     0
300
100:1
140
100.0
141
1.0
290
     0
  0
SCALE
  5
5E
102
{ACAD_REACTORS
330
4C
102
}
330
4C
100
AcDbScale
 70
     0
300
1/128" = 1'-0"
140
0.0078125
141
12.0
290
     0
  0
SCALE
  5
5F
102
{ACAD_REACTORS
330
4C
102
}
330
4C
100
AcDbScale
 70
     0
300
1/64" = 1'-0"
140
0.015625
141
12.0
290
     0
  0
SCALE
  5
60
102
{ACAD_REACTORS
330
4C
102
}
330
4C
100
AcDbScale
 70
     0
300
1/32" = 1'-0"
140
0.03125
141
12.0
290
     0
  0
SCALE
  5
61
102
{ACAD_REACTORS
330
4C
102
}
330
4C
100
AcDbScale
 70
     0
300
1/16" = 1'-0"
140
0.0625
141
12.0
290
     0
  0
SCALE
  5
62
102
{ACAD_REACTORS
330
4C
102
}
330
4C
100
AcDbScale
 70
     0
300
3/32" = 1'-0"
140
0.09375
141
12.0
290
     0
  0
SCALE
  5
63
102
{ACAD_REACTORS
330
4C
102
}
330
4C
100
AcDbScale
 70
     0
300
1/8" = 1'-0"
140
0.125
141
12.0
290
     0
  0
SCALE
  5
64
102
{ACAD_REACTORS
330
4C
102
}
330
4C
100
AcDbScale
 70
     0
300
3/16" = 1'-0"
140
0.1875
141
12.0
290
     0
  0
SCALE
  5
65
102
{ACAD_REACTORS
330
4C
102
}
330
4C
100
AcDbScale
 70
     0
300
1/4" = 1'-0"
140
0.25
141
12.0
290
     0
  0
SCALE
  5
66
102
{ACAD_REACTORS
330
4C
102
}
330
4C
100
AcDbScale
 70
     0
300
3/8" = 1'-0"
140
0.375
141
12.0
290
     0
  0
SCALE
  5
67
102
{ACAD_REACTORS
330
4C
102
}
330
4C
100
AcDbScale
 70
     0
300
1/2" = 1'-0"
140
0.5
141
12.0
290
     0
  0
SCALE
  5
68
102
{ACAD_REACTORS
330
4C
102
}
330
4C
100
AcDbScale
 70
     0
300
3/4" = 1'-0"
140
0.75
141
12.0
290
     0
  0
SCALE
  5
69
102
{ACAD_REACTORS
330
4C
102
}
330
4C
100
AcDbScale
 70
     0
300
1" = 1'-0"
140
1.0
141
12.0
290
     0
  0
SCALE
  5
6A
102
{ACAD_REACTORS
330
4C
102
}
330
4C
100
AcDbScale
 70
     0
300
1-1/2" = 1'-0"
140
1.5
141
12.0
290
     0
  0
SCALE
  5
6B
102
{ACAD_REACTORS
330
4C
102
}
330
4C
100
AcDbScale
 70
     0
300
3" = 1'-0"
140
3.0
141
12.0
290
     0
  0
SCALE
  5
6C
102
{ACAD_REACTORS
330
4C
102
}
330
4C
100
AcDbScale
 70
     0
300
6" = 1'-0"
140
6.0
141
12.0
290
     0
  0
SCALE
  5
6D
102
{ACAD_REACTORS
330
4C
102
}
330
4C
100
AcDbScale
 70
     0
300
1'-0" = 1'-0"
140
12.0
141
12.0
290
     0
  0
DICTIONARYVAR
  5
17F
102
{ACAD_REACTORS
330
17E
102
}
330
17E
100
DictionaryVariables
280
     0
  1
1:1
  0
ENDSEC
  0
EOF
